PrimaNota.ru - самый крупный в мире бесплатный архив песенных текстов, аккордов, табулатур и нот


God Machine - The Hunter - аккорды и текст, таба, видео

Регистрация Запомнить меня
Войти через:  Facebook Google Twitter Vk Yandex Mail.ru

God Machine - The Hunter - аккорды и текст, таба, видео

Печатать
Просмотров: 155
The Hunter
God Machine
		   THE HUNTER - THE GOD MACHINE

This is how I play the intro:
0-----5-------3-------5---------
--3------3-------3-------3------
----2-------2-------2-------2---
----------------------------------
----------------------------------
----------------------------------

Then before Robin begins to sing:
0-----5-------3-------3---------
--3------3-------3-------3------
----2-------2-------2-------2---
----------------------------------
----------------------------------
----------------------------------

When he sings:
0-------
--3-----
-----2--
--------
--------
--------

That's all I can play for this song!
If you can do more, mail me
s930712@student.ulg.ac.be     
Добавлено: 02.09.2013
Другие материалы по этой песне:
  • Аккорды и текст

Страница создана 02.03.2012
http://primanota.ru/god-machine/the-hunter-chords.htm
Привет, Гость.
Предлагаем пройти революционный курс по гитаре.
Подарок от PrimaNota.Ru, забирай!