PrimaNota.ru - самый крупный в мире бесплатный архив песенных текстов, аккордов, табулатур и нот


God Machine - Out - аккорды и текст, таба, видео

Регистрация Запомнить меня
Войти через:  Facebook Google Twitter Vk Yandex Mail.ru

God Machine - Out - аккорды и текст, таба, видео

Печатать
Просмотров: 82
Out
God Machine
		   THE GOD MACHINE - OUT

You only need the two first strings for intro (E + B)

(1)
-0------0------0--3-----3-----3--2------2-----2----------0-----2----0------0
-----0---  (one time)
----0-0---0-0---0--0-0---0-0--0---0-0---0-0--0-3-0-0---0-0---0----0-0---0-0---0-

(2)
3-----3-----3---2-----2-----2--3-----2-----3----(one time)
--0-0---0-0--0---0-0---0-0--0--0-0---0-0---0-

(3)
7-----7------7---5------7-----7----5------5------5---2-----3------2----(do
it four times)
--0-0---0-0---0----0-0---0-0---0----0-0----0-0--0----0-0---0-0--0--

				  (4)
-0------0------0--(only one
time)3-----3-----3--2------2-----2----------0-----2----0------0-----0---
----0-0---0-0---0--------------------0-0---0-0--0---0-0---0-0--0-3-0-0---0-0
---0----0-0---0-0---0-

3-----3-----3--2------2-----2--5------2-----3---2---2------2
--0-0---0-0--0---0-0---0-0--0---0-0---0-0--0---0----0-0---0-
(do the four part many times, I don't know how many, just listen the CD)
(during the four part, Robin sings ' why is your sky so much bluer than mine ')

After the intro begins the songs, you only needs four chords
E   0	G  3     F#  2    A   5
      0	     3           2         5
      1         4           3         6
      2         5           4         7
      2         5           4         7
      0         3           2         5

It goes like this:
E - G - F# - A - G

Sometimes it goes like this:
E - G - F#

Sorry, I don't have the solo

It was my first attempt at tabbing, so comments are welcome
s930712@student.ulg.ac.be
Enjoy!     
Добавлено: 27.09.2013
Другие материалы по этой песне:
  • Аккорды и текст

Страница создана 12.09.2013
http://primanota.ru/god-machine/out-chords.htm
Привет, Гость.
Предлагаем пройти революционный курс по гитаре.
Подарок от PrimaNota.Ru, забирай!