PrimaNota.ru - самый крупный в мире бесплатный архив песенных текстов, аккордов, табулатур и нот


God Machine - Dream Machine - аккорды и текст, видео

Регистрация Запомнить меня
Войти через:  Facebook Google Twitter Vk Yandex Mail.ru

God Machine - Dream Machine - аккорды и текст, видео

Печатать
Просмотров: 70
Dream Machine
God Machine
The god machine - dream machine

Tabbed by Dries Neyrinck

After "Are you lost?" you hear two soft chords: A (002220) and G (320033)

Then comes the bass in (approx.62 times a distorted A)

The opening riff is played with effects on (maybe this is played reversely)
Opening riff:

D----------------------------------0---
A-0----7----0----7----0----7----0---
E----7----7----7----7----7----7------

4 x opening riff + C (8 10 10 9 8 8)

Verse
Q = quart, e = eight, s = sixteenth

Riff A
  q       e   s s q      e   s s q      e   s s e   e   q
  A               A              A              C   B   C
E-x-------x---x-x-x------x---x-x-x------x---x-x-x---x---x
B-x-------x---x-x-x------x---x-x-x------x---x-x-x---x---x
G-6-------x---x-x-6------x---x-x-6------x---x-x-9---8---9
D-7-------x---x-x-7------x---x-x-7------x---x-x-10--9---10
A-7-------x---x-x-7------x---x-x-7------x---x-x-10--9---10
E-5-------x---x-x-5------x---x-x-5------x---x-x-8---7---8

Riff B
  q       e   s s q      e   s s q      e   s s e       q
  A               A              A              B       C
E-x-------x---x-x-x------x---x-x-x------x---x-x-x-------x
B-x-------x---x-x-x------x---x-x-x------x---x-x-x-------x
G-6-------x---x-x-6------x---x-x-6------x---x-x-8-------9
D-7-------x---x-x-7------x---x-x-7------x---x-x-9-------10
A-7-------x---x-x-7------x---x-x-7------x---x-x-9-------10
E-5-------x---x-x-5------x---x-x-5------x---x-x-7-------8

Riff C
  q       e   s s q      e   s s q      e   s s e       q
  A               A              A              A       B
E-x-------x---x-x-x------x---x-x-x------x---x-x-x-------x
B-x-------x---x-x-x------x---x-x-x------x---x-x-x-------x
G-6-------x---x-x-6------x---x-x-6------x---x-x-6-------8
D-7-------x---x-x-7------x---x-x-7------x---x-x-7-------9
A-7-------x---x-x-7------x---x-x-7------x---x-x-7-------9
E-5-------x---x-x-5------x---x-x-5------x---x-x-5-------7

Riff D
  q       e   s s q      e   s s q      e   s s e       q
  C               C              C              C       B
E-x-------x---x-x-x------x---x-x-x------x---x-x-x-------x
B-x-------x---x-x-x------x---x-x-x------x---x-x-x-------x
G-9-------x---x-x-9------x---x-x-9------x---x-x-9-------8
D-10------x---x-x-10-----x---x-x-10-----x---x-x-10------9
A-10------x---x-x-10-----x---x-x-10-----x---x-x-10------9
E-8-------x---x-x-8------x---x-x-8------x---x-x-8-------7

Riff E
  q       e   s s q      e   s s q      e   s s e   e   q
  A               A              A              A   B   C
E-x-------x---x-x-x------x---x-x-x------x---x-x-x---x---x
B-x-------x---x-x-x------x---x-x-x------x---x-x-x---x---x
G-6-------x---x-x-6------x---x-x-6------x---x-x-5---8---9
D-7-------x---x-x-7------x---x-x-7------x---x-x-7---9---10
A-7-------x---x-x-7------x---x-x-7------x---x-x-7---9---10
E-5-------x---x-x-5------x---x-x-5------x---x-x-6---7---8

Riff F
  q       e   s s q      e   s s q      e   s s e   e   q
  A               A              A              A   C   B
E-x-------x---x-x-x------x---x-x-x------x---x-x-x---x---x
B-x-------x---x-x-x------x---x-x-x------x---x-x-x---x---x
G-6-------x---x-x-6------x---x-x-6------x---x-x-5---9---8
D-7-------x---x-x-7------x---x-x-7------x---x-x-7---10--9
A-7-------x---x-x-7------x---x-x-7------x---x-x-7---10--9
E-5-------x---x-x-5------x---x-x-5------x---x-x-6---8---7


Riff F
  q       e   s s q      e   s s q      e   s s q   e   s s
  A               A              A              A        
E-x-------x---x-x-x------x---x-x-x------x---x-x-x---x---x-x
B-x-------x---x-x-x------x---x-x-x------x---x-x-x---x---x-x
G-6-------x---x-x-6------x---x-x-6------x---x-x-5---x---x-x
D-7-------x---x-x-7------x---x-x-7------x---x-x-7---x---x-x
A-7-------x---x-x-7------x---x-x-7------x---x-x-7---x---x-x
E-5-------x---x-x-5------x---x-x-5------x---x-x-6---x---x-x

Riff A
Riff B
Riff A
Riff B
Riff A (Robin begins to sing "Talk to yourself")
Riff B
Riff A
Riff C
Riff D
Riff A
Riff B
Riff A
Riff C
Riff D
Riff C
Riff D
Riff C
Riff D
Riff C
Riff D
Let ring an A-chord

Drums enter, all kinds of guitar noise. Possibly strumming over an Asus2 
(x x 0 9 10 10)

After the drums
Riff E
Riff F
Riff E
Riff G
Riff D
Riff G
Riff D
Riff G
Riff D
Riff G
Riff D
     
Добавлено: 03.10.2013
Вам также может быть интересно:
Другие материалы по этой песне:
  • Аккорды и текст

Страница создана 03.10.2013
http://primanota.ru/god-machine/dream-machine-chords.htm
Привет, Гость.
Предлагаем пройти революционный курс по гитаре.
Подарок от PrimaNota.Ru, забирай!