PrimaNota.ru - самый крупный в мире бесплатный архив песенных текстов, аккордов, табулатур и нот


God Is An Astronaut - From Dust To The Beyond - таба, видео

Регистрация Запомнить меня
Войти через:  Facebook Google Twitter Vk Yandex Mail.ru

God Is An Astronaut - From Dust To The Beyond - таба, видео

Печатать
Просмотров: 587
Авторы музыки: Niels Kinsella, Noel Healy, Torsten Kinsella

I think there's only a small guitar part in this song towards the end
But I've tried to tab the whole thing out for guitar.
  
Intro 0.12 - 0.40
e|-------7~-6~-|
B|----4~-------|
G|-6~----------|
D|-------------|
A|-------------|
E|-------------|

Guitar/Keyboard 2 
0.30       0.36
e|-7/9b~-|-9\7-|
B|-------|-----|
G|-------|-----|
D|-------|-----|
A|-------|-----|
E|-------|-----|

0.40 - 1.25

Guitar/Keyboard 1
e|-11---------11-------------------|
B|------12-14------12-14-----------|
G|-------------------------11---9~-|
D|---------------------------------|
A|---------------------------------|
E|---------------------------------|


Guitar/Keyboard 2
e|-------7~-----------7~-6~|
B|----4~----4------4~------|
G|-6~-----------6~---------|
D|-------------------------|
A|-------------------------|
E|-------------------------|

Guitar/Keyboard 3 plays this at 1.08,1.14 then twice at 1.20
e|------------7-7-|
B|---4---4-5------|
G|-6---6----------|
D|----------------|
A|----------------|
E|----------------|


1.25 - 2.07
 x3
e|------------7-7-|---------------|
B|---4---4-5------|---4---4-5-4---|
G|-6---6----------|-6---6-------6-|
D|----------------|---------------|
A|----------------|---------------|
E|----------------|---------------|

Guitar/Keyboard 2 1.46 - 2.07(listen for timing)
e|-7b-|
B|----|
G|----|
D|----|
A|----|
E|----|

2.07 - 2.43
e|----------|
B|----------|
G|-6~-/-7b~-|
D|----------|
A|----------|
E|----------|

Guitar/Keyboard 2 2.07 - 2.43 listen for timing
e|----|
B|----|
G|-6~-|
D|----|
A|----|
E|----|

2.43 - 2.49
e|-------7~-6~-|
B|----4~-------|
G|-6~----------|
D|-------------|
A|-------------|
E|-------------|

2.49 
e|-11---------11-------------------|
B|------12-14------12-14-----------|
G|-------------------------11---9~-|
D|---------------------------------|
A|---------------------------------|
E|---------------------------------|

Guitar/Keyboard 2 2.49 - 2.41 listen for timing
e|----|
B|----|
G|-6~-|
D|----|
A|----|
E|----|

3.15, 3.20 then twice at 3.26
e|------------7-7-|
B|---4---4-5------|
G|-6---6----------|
D|----------------|
A|----------------|
E|----------------|

3.26 - 4.37
x3
e|------------7-7-|---------------|
B|---4---4-5------|---4---4-5-4---|
G|-6---6----------|-6---6-------6-|
D|----------------|---------------|
A|----------------|---------------|
E|----------------|---------------|
Guitar/Keyboard 2 3.53 - 4.37
e|-7b-|
B|----|
G|----|
D|----|
A|----|
E|----|

Guitar 4.16 - 4.37
e|-----------------|
B|-----4---4-5-----|
G|-4-6---6-----4---|
D|---------------6-|
A|-----------------|
E|-----------------|

Then drums play until the end
Добавлено: 06.05.2012
Другие материалы по этой песне:

Страница создана 06.05.2012
http://primanota.ru/god-is-an-astronaut/from-dust-to-the-beyond-chords.htm
Привет, Гость.
Предлагаем пройти революционный курс по гитаре.
Подарок от PrimaNota.Ru, забирай!