PrimaNota.ru - самый крупный в мире бесплатный архив песенных текстов, аккордов, табулатур и нот


God Is An Astronaut - All Is Violent All Is Bright - таба, видео

Регистрация Запомнить меня
Войти через:  Facebook Google Twitter Vk Yandex Mail.ru

God Is An Astronaut - All Is Violent All Is Bright - таба, видео

Печатать
Просмотров: 339
Авторы музыки: Niels Kinsella, Thomas Kinsella, Torsten Kinsella, Lloyd Hanney

RIFF A

e|-4-2-----4--------4-4-2--|---2----1--2-------|---4-7---6--4-----|
B|-0---------0--------0----|-----0-------------|------------------|
G|-------------3-----------|-------------------|------------------|
D|-------4-------4---------|-1-----1--1--1-----|-4-----4---4---4--|
A|-------------------------|-------------------|------------------|
E|-------------------------|-------------------|------------------|

e|----2-----4-2---4-2------|----4--------4-4-2-|---2----1--2------|
B|-0----0-------0----------|------0--------0---|-----0------------|
G|-3------3----------------|--------3----------|------------------|
D|-------------------------|--4-------4--------|-1-----1--1--1----|
A|-------------------------|-------------------|------------------|
E|-------------------------|-------------------|------------------|

e|---4-7---6--4------------|----2-----4-2---4-2|----4--------4-4-2|
B|-------------------------|-0----0-------0----|------0--------0--|
G|-------------------------|-3------3----------|--------3---------|
D|-4-----4---4---4---------|-------------------|--4-------4-------|
A|-------------------------|-------------------|------------------|
E|-------------------------|-------------------|------------------|


e|---2----1--2-------------|---4-7---6--4------|---2-----4-2---4-2|
B|-----0-------------------|-------------------|0----0-------0----|
G|-------------------------|-------------------|3------3----------|
D|-1-----1--1--1-----------|-4-----4---4---4---|------------------|
A|-------------------------|-------------------|------------------|
E|-------------------------|-------------------|------------------|

e|---------4--------4-4-2--|---2----1--2-------|---2-----4-2---4-2|
B|-----------0--------0----|-----0-------------|0----0-------0----|
G|-------------3-----------|-------------------|3------3----------|
D|-------4-------4---------|-1-----1--1--1-----|------------------|
A|-------------------------|-------------------|------------------|
E|-------------------------|-------------------|------------------|

e|---4-6------7----6-------|
B|--------4-----4----4-----|
G|----------3--------------|
D|-------------------------|
A|-------------------------|
E|-------------------------|
Добавлено: 10.03.2012
Другие материалы по этой песне:

Страница создана 10.03.2012
http://primanota.ru/god-is-an-astronaut/all-is-violent-all-is-bright-chords.htm
Привет, Гость.
Предлагаем пройти революционный курс по гитаре.
Подарок от PrimaNota.Ru, забирай!