PrimaNota.ru - самый крупный в мире бесплатный архив песенных текстов, аккордов, табулатур и нот


God Help The Girl - Im In Love With The City - аккорды и текст, видео

Регистрация Запомнить меня
Войти через:  Facebook Google Twitter Vk Yandex Mail.ru

God Help The Girl - Im In Love With The City - аккорды и текст, видео

Печатать
Просмотров: 207
Im In Love With The City
God Help The Girl
ubi_rex@hotmail.com

There's some tabbed version of the intro and bridge at the bottom.

Gm D Gm Gm

       Gm                          D
I'm in love with the city.  I'm in love with the boy.
      Eb                       C                    
Gotta put it on record.  Gotta write a new song.
            Bb                        Eb                D     D7
There ain't no way around it, he's in love with another girl

      Gm                             D
I'm a wreck, I'll admit it.  I can't eat when he's near.
        Eb                            C
And I'm so tired and nervous that you better stay clear.
      Bb                   Eb                 D     D7
Leave me to the company of me if I can't have him

    Bb                        F
I'm trying to be tender.  I'm trying to be cool.
  Eb                        Bb
I laugh at my own jokes.  I laugh like a fool.
            Cm                       
There ain't no doubt about it.  
     Gm                    Ab    Ab G F# F
He's in with his life-long girl

Gm                        D
What chance do I have?  A cat's chance in hell.
         Gm       Gm Gm
I better take it

Gm      C    
D   C   Gm
             Gm                        D
I'm going to write him a letter, gonna put it in words.
      Eb                       C
Gonna make it official.  Gonna make it absurd.
         Bb                           
Hold up then, there a second, girl. 
        Eb                     D    D7
You'll spoil what you have to do

          Gm                             D
They're a sweet loving couple. How could you come between?
        Eb                           C
All the talk and the tenderness, the love and the feeling
    Bb                     Eb                   D       D7
His eyes start to sparkle--sparks for the other girl.

       Bb                         F
I'm in love with his face. I'm in love with his eyes.
        Eb                                 Bb
I could eat them for breakfast. Boy, would he be surprised.
      Cm                        Gm                 Ab  Ab G F# F
If he knew how I felt, it would spoil any chance I had.


Gm                           D
What chance is that?  It's a cat's chance in hell.
         Gm          
I better take it

---------------------------------------
Here's something you can play for the intro and the bridge.
It's not exactly what all those horns are playing, but it will do.

Intro
Gm             D             Gm    Gm
-------------------------------------------|
-------------------------------------------|
-------------------------------------------|
-------------------------------------------|
-----------3---5--5--3---------------------|
-3--6-3-6----6---------6-3-1-3-3---3-3-----|


Bridge
Gm                        C                     D
-----3--------------3--1--0--3--------------3-8-5----|
-----3----------1---3--1--1-------------1---3-8-7----|
-----3-0-0--0-3---3------------0-0--0-3---3----------|
-----------------------------------------------------|
-----------------------------------------------------|
-----------------------------------------------------|

        C        Gm
--------3----6-5-3-------------------------------|
--------5--------3-------------------------------|
----0-3-5--------3----0--------------------------|
-------------------------------------------------|
--------------------------------1----------------|
-------------------------3-3--3---3-1-3----------|
Добавлено: 20.07.2012
Другие материалы по этой песне:
  • Аккорды и текст

Страница создана 20.07.2012
http://primanota.ru/god-help-the-girl/im-in-love-with-the-city-chords.htm
Привет, Гость.
Предлагаем пройти революционный курс по гитаре.
Подарок от PrimaNota.Ru, забирай!