PrimaNota.ru - самый крупный в мире бесплатный архив песенных текстов, аккордов, табулатур и нот


God Forbid - Divide My Destiny - текст песни, бас-таба, видео

Регистрация Запомнить меня
Войти через:  Facebook Google Twitter Vk Yandex Mail.ru

God Forbid - Divide My Destiny - текст песни, бас-таба, видео

Печатать
Просмотров: 214
Band- God Forbid
Song- Divide My Destiny

Tuning: D G C F

Riff 1 (0:01)
F |---------------|
C |---------------|
G |-------0~-2-3--|
D |--1~-3---------|

Riff 2 (0:25)
F |--------------|
C |--------------|
G |--------------|
D |--1~-3-5~-3~--|

Riff 1 (0:47)

Riff 3 (0:52)
F |---------------|
C |---------------|
G |-------0~-5-7--|
D |--1~-3---------|

Riff 1 (0:58)

Riff 4 (1:10)
F |------------------------------------------|
C |------------------------------------------|
G |------------------------------------------|
D |--1111-1111-1111-1-3-5555-5555-3333-3333--|

Riff 5 (1:21)
F |-----------------------------------------|
C |----------------------------3-5-7p5------|
G |------------------------3-5---------7-5--|
D |--555-111-222-3333-3333------------------|

Riff 6 (1:33)
F |-----------------------------------------------|
C |-----------------------------------------------|
G |---------------------------3----------3--------|
D |--5555-5555-5555-5555-1111---2-1-1111---2-0-1--|

F |-------------------------------------------------|
C |------------------------------------3-5-7p5------|
G |--------------------------------3-5---------7-5--|
D |--2222-2222-2222-2222-3333-3333------------------|

Riff 7 (2:02)
F |--5-4-7p5-5-4-5h7p5-4-5-4-7p5-9-7-9h10p9-7--|
C |--------------------------------------------|
G |--------------------------------------------|
D |--------------------------------------------|

F |------------------------------------------------|
C |------------------------------------------------|
G |--3-2-5p3-3-2-3h5p3-2h3-3-2-5p3-10-8-7h8p7-5h7--|
D |------------------------------------------------|

Riff 8 (2:24)
F |------------------------------|
C |--7~-----7~-7-5---------------|
G |-----5h7--------8-7-5---5-----|
D |----------------------8---5~--|

Riff 6 (2:36)
Riff 7 (2:59)

Riff 9 (3:22)
F |--------------------------|
C |--7~-----7~-9-7-5-7-5-----|
G |-----5h7------------------|
D |----------------------5~--|

Riff 4 (3:40)
Riff 3 (3:46)
Riff 2 (3:52)
Riff 4 (4:14)
Riff 3 (4:20)
Riff 4 (4:26)

Ending (4:51)
F |--------|
C |--------|
G |--------|
D |--3-5\--|
Добавлено: 19.05.2012
Другие материалы по этой песне:
  • Аккорды и текст

Страница создана 19.05.2012
http://primanota.ru/god-forbid/divide-my-destiny-chords.htm
Привет, Гость.
Предлагаем пройти революционный курс по гитаре.
Подарок от PrimaNota.Ru, забирай!