PrimaNota.ru - самый крупный в мире бесплатный архив песенных текстов, аккордов, табулатур и нот


God Forbid - A Reflection Of The Past - таба, бас-таба, видео

Регистрация Запомнить меня
Войти через:  Facebook Google Twitter Vk Yandex Mail.ru

God Forbid - A Reflection Of The Past - таба, бас-таба, видео

Печатать
Просмотров: 144
Уроки эстрадного вокала в Санкт-Петербурге
Band- God Forbid
Song- A Reflection Of The Past

.  - palm mute           /  - slide up to
\  - slide down to       ~  - vibrato
h  - hammer on           b  - Bend
p  - pull off            Suffixes for bend
t  - tap                 f  - full bend    h - half bend
ph - pinched harmonic    q  - quarter bend t - tap bend
*  - see comment         ^  - Hold bend    r release bend
x  - Stuccatto           ~  - vibrato bend
,  - slight palm mute    () - ghost note, sustained note
"  - tremolo note        <> - Trill

(Intro) - Repeats Throughout whole song                    [guitar 1]
D------------------------------------------------------------------|
A------------------------------------------------------------------|
F------9---------10-10----------------7--------5-------3/5---------|
C----7---------7-------10-10-8------5--------3---------------------|
G--5-------5-5--------------------3------3-1------1-1--------------|
D------------------------------------------------------------------|

(solo)
D------------------------------------------------------------------|
A------------------------------------------------------------------|
F--5~-5~-9-7-5-5--7-9-10--10-10-12-9h10p9--------------------------|
C------------------------------------------10--10-10-10-10/12-8~~--|
G------------------------------------------------------------------|
D------------------------------------------------------------------|

D---------------------------------------------------------|
A---------------------------------------------------------|
F--7~-7-9-10--10-10-12-9h10p9-----------------------------|
C------------------------------10--10-10-10-10/12---------|
G---------------------------------------------------------|
D---------------------------------------------------------|

D----------------------------------------------------------------|
A----------------------------------------------------------------|
F----------------------------------------------------------------|
C--10-12-14-15-15h17p15-12-14-15-15h17p15-12-14-15-15h17p15------|
G----------------------------------------------------------------|
D----------------------------------------------------------------|

D------------------------------------------------------------------------|
A------------------------------------------------------------------------|
F--7~~-7-9-10/12-10-9-10/14--13h14p13------------------------------------|
C-------------------------------------15-15-15/17--14-15-17-15-14-15-17--|
G------------------------------------------------------------------------|
D------------------------------------------------------------------------|

D-------------------------------------------------|
A-------------------------------------------------|
F-------------------------------------------------|
C--12~-12-14-15-----------------------------------|
G-----------------14-12-13-9-9~--12-5-------------|
D-------------------------------------------------|

D---------------------------------------------------------|
A---------------------------------------------------------|
F--7~-7-9-10--10-10-12-9h10p9-----------------------------|
C------------------------------10--10-10-10-10/12---------|
G---------------------------------------------------------|
D---------------------------------------------------------|

D---------------------------------------------------------------------|
A---------------------------------------------------------------------|
F---------------------------------------------------------------------|
C--10-12-14-15-15h17p15-12-14-15-15h17p15-12-14-15-15h17p15---15~\\---|
G---------------------------------------------------------------------|
D---------------------------------------------------------------------|

Добавлено: 02.03.2012
Другие материалы по этой песне:
  • Аккорды и текст

Страница создана 02.03.2012
http://primanota.ru/god-forbid/a-reflection-of-the-past-chords.htm
Привет, Гость.
Предлагаем пройти революционный курс по гитаре.
Подарок от PrimaNota.Ru, забирай!