PrimaNota.ru - самый крупный в мире бесплатный архив песенных текстов, аккордов, табулатур и нот


God Dethroned - Villa Vampiria - текст песни, таба, видео

Регистрация Запомнить меня
Войти через:  Facebook Google Twitter Vk Yandex Mail.ru

God Dethroned - Villa Vampiria - текст песни, таба, видео

Печатать
Просмотров: 145
Уроки эстрадного вокала в Санкт-Петербурге
Авторы музыки: God Dethroned
Авторы текста: Henri Sattler
This is my first tab and I think its pretty close. LISTEN TO THE SONG BEFORE YOU TRY TO 
THIS!

Key
p = pull off
h = hammer on
ph = pinch harmonic
~ = vibrato
. = palm mute

Tuning= {DGCFAD}

Intro
|-------------------------------------------------------------------|
|-------------------------------------------------------------------|
|-------------------------------------------------------------------|
|--------7-----------------------------------------------------7/5--|
|--5-7-5-5-5-2----2-----8p7~--2-----8h10~--2------8h7~---2-----5/3--|
|--3-5-3---3-0----0-000-------0-000--------0-000---------0-000------|
                    ...         ...          ...           ...

|-------------------------------------------------------------------|
|-------------------------------------------------------------------|
|-------------------------------------------------------------------|
|---------------------------------------------------7/5-------------|
|------2-----8p7~--2-----8h10~--2------8h7~---2-----5/3-------------|
|------0-000-------0-000--------0-000---------0-000-----------------|
         ...         ...          ...           ...


Fig. 1
|--------------------------------------------------------------------|
|--------------------------------------------------------------------|
|--------------------------------------------------------------------|
|--------------------------------------------------------------------|
|--2-------5-8-7~------8p7~-----8h10~------10h12~------3-2-----------|
|--0-00000--------0000------0000-------0000-------0000-1-0-----------|X2
     .....        ....      ....       ....       ....
Fig. 2
|-------------------------------------------------------------------|
|-------------------------------------------------------------------|
|-------------------------------------------------------------------|
|----------7-10-9---------------------------------------------------|
|--2-------5-8--7~----8p7~------8h10~-------10h12~------3-2---------|
|--0-00000--------0000------0000-------0000--------0000-1-0---------|
     .....        ....      ....       ....        ....

|-------------------------------------------------------------------|
|-------------------------------------------------------------------|
|-------------------------------------------------------------------|
|----------7-10-9---------------------------------------------------|
|--2-------5-8--7~-----8p7~-----8h10~------10h12~----------2-1-5----|
|--0-00000--------0000------0000-------0000--------0000000-0-3-3----|
     .....        ....      ....       ....        .......    Play into this

Fig. 3
|-------------------------------------------------------------------|
|-------------------------------------------------------------------|
|-------------------------------------------------------------------|
|------------------------------------------5------------------------|
|-------5------6------5--2-1-5------5-------------6---2-3-2---------|
|--0000---0000---0000----0-3-3-0000---0000---0000-----0-1-0---------|
   ....   ....   ....          ....   ....   ....           Play into this

Fig. 4
|-------------------------------------------------------------------|
|-------------------------------------------------------------------|
|-------------------------------------------------------------------|
|------------------------ph9~--------------------------ph9~---------|
|---------7-----9-----10-------------5-----7-----9------------------|
|--000000---000---000---------000000---000---000---000--------------|
   ......   ...   ...         ......   ...   ...   ...       Play into this


|-------------------------------------------------------------------|
|-------------------------------------------------------------------|
|-------------------------------------------------------------------|
|------------------------9~------------------7------------7---------|
|---------7-----9-----10---------5-----7--------8~--5-7-5-5-7-5-2---|
|--000000---000---000-------0000---000---000--------3-5-3---5-3-0---|
   ......   ...   ...       ....   ...   ...

Just play the whole thing over again until you come to this part...

Fig. 5
|-----------------------------------------------------------------------|
|-----------------------------------------------------------------------|
|-----------------------------------------------------------------------|
|---------------------------------------------------------------5-------|
|------------2--------------------7p5-8h10-7~---------------3---3---5-2-|
|--Pickslide-0-0-0-0-0-0-0-0-0-0--------------0-0-0-0-0-0-0-1-0---0-3-0-|
               . . . . . . . . .              . . . . . . .   .   .
Fig. 6
|-----------------------------------------------------------------------|
|-----------------------------------------------------------------------|
|-----------------------------------------------------------------------|
|-----------------------------------------------------7-----------------|
|--2--------------------7p5-8h10-7~---------------5---5---7-2-----------|
|--0-0-0-0-0-0-0-0-0-0--------------0-0-0-0-0-0-0-3-0---0-5-0-----------|
     . . . . . . . . .              . . . . . . .   .   .

|-----------------------------------------------------------------------|
|-----------------------------------------------------------------------|
|-----------------------------------------------------------------------|
|-----------------------------------------------7/5---------------------|
|--2-----8p7~--2-----8h10~--2------8h7~---2-----5/3--7~-----------------|
|--0-000-------0-000--------0-000---------0-000-------------------------|
     ...         ...          ...           ...

Play Figure 5 and 6 again.

|-----------------------------------------------------------------------|
|-----------------------------------------------------------------------|
|-----------------------------------------------------------------------|
|-----------------------------------------------7/5---------------------|
|--2-----8p7~--2-----8h10~--2------8h7~---2-----5/3--7~-----------------|
|--0-000-------0-000--------0-000---------0-000-------------------------|
     ...         ...          ...           ...


Then comes the solo, its hard to translate but it sounds like a lot of whammy and maybe 
tapping. Improvise.

Here's the solo backing is just figures 1 and 2.


The last part goes like this...

|-------------------------------------------------------------------------|
|-------------------------------------------------------------------------|
|-------------------------------------------------------------------------|
|---------------------------------------------5---------------------------|
|--2-1-5------5------6------5--2-1-5------5-------------6---2-3-2---------|
|--0-3-3-0000---0000---0000----0-3-3-0000---0000---0000-----0-1-0---------|
         ....   ....   ....          ....   ....   ....


|-------------------------------------------------------------------|
|-------------------------------------------------------------------|
|-------------------------------------------------------------------|
|------------------------ph9~--------------------------ph9~---------|
|---------7-----9-----10-------------5-----7-----9------------------|
|--000000---000---000---------000000---000---000---000--------------|
   ......   ...   ...        ......   ...   ...   ...


|----------------------------------------------------|
|----------------------------------------------------|
|----------------------------------------------------|
|------------------------9~------------------7-------|
|---------7-----9-----10---------5-----7--------8~---|
|--000000---000---000-------0000---000---000---------|
   ......   ...   ...       ....   ...   ...


|-----------------------------------------------------------------------|
|-----------------------------------------------------------------------|
|-----------------------------------------------------------------------|
|--------7-----------------------------ph9~-----------------------ph9~--|
|--5-7-5-5-7-5-2--------7-----9-----10--------------5-----7-----9-------|
|--3-5-3---5-3-0-000000---000---000----------000000---000---000---------|
                 ......   ...   ...          ......   ...   ...

|--------------------------------------------------------------------------|
|--------------------------------------------------------------------------|
|--------------------------------------------------------------------------|
|------------------------9~----------------7-----------7-----------7-------|
|-------7-----9-----10---------5-----7--------8~-5-7-5-5-7-5-5-7-5-5-7-5-2-|
|-000000---000---000-------0000---000---000------3-5-3---5-3-3-5-3---5-3-0-|
  ......   ...   ...       ....   ...   ...

The last part is a very short solo that just sounds like a bunch of whammy, again, improvise.

Well that was it. I hope everything is correct, this is a great song from a great band. 
and please rate!
Добавлено: 03.03.2012
Другие материалы по этой песне:

Страница создана 03.03.2012
http://primanota.ru/god-dethroned/villa-vampiria-chords.htm
Привет, Гость.
Предлагаем пройти революционный курс по гитаре.
Подарок от PrimaNota.Ru, забирай!