PrimaNota.ru - самый крупный в мире бесплатный архив песенных текстов, аккордов, табулатур и нот


God Dethroned - The Poison Apple - таба, видео

Регистрация Запомнить меня
Войти через:  Facebook Google Twitter Vk Yandex Mail.ru

God Dethroned - The Poison Apple - таба, видео

Печатать
Просмотров: 92
                     GOD DETHRONED - THE POISON APPLE 
                         From the Album RAVENOUS 
                    Copyright 2001 (Metal Blade Records) 
                         Version 1.0 - July 2001 
    
Transcribed by: Chris Ninman 

For Questions, Comments, Newest Version, or Corrections contact 
 Chris Ninman at: snowballingblood@hotmail.com 

Check Out Death Warp, With More Transcriptions On It:
 http://www.sorrowsend.com/DeathWarp/

.  - palm mute                    /  - slide up to 
\  - slide down to                ~  - vibrato 
h  - hammer on                    b  - bend 
p  - pull off                          Suffixes for bend 
ph - pinch harmonic                     f - full bend    h - half bend 
*  - see comment                        r - release      t - tap bend 
X  - percussion mute                    ~ - vibrato bend 
@  - slight palm mute             () - ghost note, sustained note 
"  - tremolo pick until next note 

There is some rhythm part under Riffs 8 and 12 that I can not figure 
out exactly what is going on there. I did not do the solo either. 
But other than that this should be the complete song. 

Tuning C# (C#,F#,B,E,G#,C#) 

Intro 
|------------------------------------------------------------------| 
|------------------------------------------------------------------| 
|------------------------------------------------------------------| 
|------------------------------------------------------------------| 
|-4-5-4-5-7---5-4-2------------------------------------------------| 
|-2-3-2-3-5---3-2-0------------------------------------------------| 
| . . . .     . . 
|------------------------------------------------------------------| 
|------------------------------------------------------------------| 
|------------------------------------------------------------------| 
|------------------------------------------------------------------| 
|-4-5-4-5-7---5-4--------------------------------------------------| 
|-2-3-2-3-5---3-2-0000000000007p6p5-6~--0000000000003-5-7--5-3-2---| 
. . . .     . . 

|---------------------------------------------------| 
|---------------------------------------------------| 
|---------------------------------------------------| 
|---------------------------------------------------| 
|-2-----------6p5p4-5~--------------4-5-4-5-7---5-4-| 
|-0---------------------------------2-3-2-3-5---3-2-| 
|                                   . . . .     . . 
|---------------------------------------------------| 
|---------------------------------------------------| 
|---------------------------------------------------| 
|---------------------------------------------------| 
|-----------------------------------4-5-4-5-7---5-4-| 
|-0000000000007p6p5-6~--0000000000002-3-2-3-5---3-2-| 
                                   . . . .     . . 
Riff 1 (1 time) 
|--------------------------------------------------| 
|--------------------------------------------------| 
|--------------------------------------------------| 
|--------------------------------------------------| 
|--------------------------------------------------| 
|-0000000000007p6p5-6~--0000000000003-5-7--5-3-2---| 

Riff 1 cont. 
|---------------------------------------------------| 
|---------------------------------------------------| 
|---------------------------------------------------| 
|---------------------------------------------------| 
|-2-----------6p5p4-5~--------------4-5-4-5-7---5-4-| 
|-000000000000----------0000000000002-3-2-3-5---3-2-| 
|                                   . . . .     . . 
|---------------------------------------------------| 
|---------------------------------------------------| 
|---------------------------------------------------| 
|---------------------------------------------------| 
|-----------------------------------4-5-4-5-7---5-4-| 
|-0000000000007p6p5-6~--0000000000002-3-2-3-5---3-2-| 
                                   . . . .     . . 
Riff 2 (1 time) 
|--------------------------------------------------| 
|--------------------------------------------------| 
|--------------------------------------------------| 
|--------------------------------------------------| 
|--------------------------------------------------| 
|-0000000000007p6p5-6~--0000000000003-5-7--5-3-2---| 


|---------------------------------------------------| 
|---------------------------------------------------| 
|---------------------------------------------------| 
|---------------------------------------------------| 
|-----------------------------------4-5-4-5-7---5-4-| 
|-0000000000007p6p5-6~--0000000000002-3-2-3-5---3-2-| 
                                   . . . .     . . 
Riff 3 (4 times) 
|---------------------------------------------------------------| 
|---------------------------------------------------------------| 
|---------------------------------------------------------------| 
|---------------------------------------------------------3-2p0-| 
|------7---9---10p7------10------9------4---6---7------3-0------| 
|-0000---0---0------8888----8877---4444---4---4---1111----------| 

Riff 4 (1 time) 
|---------------------------------------------------| 
|---------------------------------------------------| 
|---------------------------------------------------| 
|---------------------------------------------------| 
|------------------------------------------222-2222-| 
|-8"----5"-7"----0"-2"3"2"0"8"----5"-7"----000-0000-| 
| 
|---------------------------------------------------| 
|---------------------------------------------------| 
|---------------------------------------------------| 
|---------------------------------------------------| 
|------------------------------------------222-2222-| 
|-5"----0"-3"----0"-2"3"2"0"5"----0"-3"----000-0000-| 

Riff 5 (2 times) 
|---------------------------------------------------| 
|---------------------------------------------------| 
|---------------------------------------------------| 
|---------------------------------------------------| 
|------------------------------------7"----222-2222-| 
|-8"----5"-7"----0"-2"3"2"0"8"----5"-------000-0000-| 
| 
|---------------------------------------------------| 
|---------------------------------------------------| 
|---------------------------------------------------| 
|---------------------------------------------------| 
|------------------------------------------222-2222-| 
|-5"----0"-3"----0"-2"3"2"0"5"----0"-8"----000-0000-| 

Riff 6 (1 time) 
|---------------------------------------------------| 
|---------------------------------------------------| 
|---------------------------------------------------| 
|---------------------------------------------------| 
|----------7"-------10"--7"12"----7"-10"---222-2222-| 
|-8"----5"-------0"------------------------000-0000-| 
| 
|---------------------------------------------------| 
|---------------------------------------------------| 
|---------------------------------------------------| 
|---------------------------------------------------| 
|------------------------------------------222-2222-| 
|-5"----0"-3"----0"-2"3"2"0"5"----0"-8"----000-0000-| 

Repeat Riff 3 (4 times) 
Repeat Riff 4 (1 time) 
Repeat Riff 5 (2 times) 
Repeat Riff 6 (1 time) 

Riff 7 (1 time) 
|-------------------------------------| 
|-------------------------------------| 
|-------------------------------------| 
|-------------------------------------| 
|----9"----10"-10"12"10"9"10"12"10"9"-| 
|-7"----8"----------------------------| 

Riff 7 cont. 
|-------------------------------------| 
|-------------------------------------| 
|-------------------------------------| 
|-------------------------------9"----| 
|----9"----10"-10"12"10"9"10"12"------| 
|-7"----8"----------------------------| 

Riff 7 cont. 
|-------------------------------------| 
|-------------------------------------| 
|-------------------------------------| 
|-------------------------------------| 
|----9"----10"-10"12"10"9"10"12"10"9"-| 
|-7"----8"----------------------------| 

Riff 7 cont. 
|------------------------------------| 
|------------------------------------| 
|------------------------------------| 
|------------------------------------| 
|----9"----10"-10"12"10"9"-----------| 
|-7"----8"----------------13"-12"10"-| 

Riff 8 
|-------------------------------------------------------| 
|-------------------------------------------------------| 
|-------------------------------------------------------| 
|-10--9--7h9p7--------------10--9h10p9---7-b(9)r7-------| 
|---------------9-10---10-------------------------10----| 
|-------------------------------------------------------| 
| 
|-------------------------------------------------------| 
|-------------------------------------------------------| 
|-------------------------------------------------------| 
|-------------------------------------------------------| 
|-12-10-9h10p9--------------12-10h12p10-9-b(10)r9-------| 
|--------------10-12------------------------------12----| 

Riff 8 cont. 
|-------------------------------------------------------| 
|-------------------------------------------------------| 
|-------------------------------------------------------| 
|-10--9--7h9p7--------------10--9--12--10-9--9h10p9-----| 
|---------------9-10---10---------------------------12--| 
|-------------------------------------------------------| 
| 
|-------------------------------------------------------| 
|-------------------------------------------------------| 
|-------------------------------------------------------| 
|-------------------------------------------------------| 
|-12-10-9h10p9--------------12-10--14--12-10-10---------| 
|--------------10-12---12------------------------14-12--| 

Riff 8 cont. 
|-------------------------------------------------------| 
|-------------------------------------------------------| 
|-------------------------------------------------------| 
|-10--9--7h9p7--------------10--9-h10p9---7b(9)r7-------| 
|---------------9-10---10-------------------------10----| 
|-------------------------------------------------------| 
| 
|-------------------------------------------------------| 
|-------------------------------------------------------| 
|-------------------------------------------------------| 
|-------------------------------------------------------| 
|-12-10-9h10p9--------------12-10-h12p10-9b(10)r9-------| 
|--------------10-12------------------------------12----| 

Riff 8 cont. 
|-------------------------------------------------------| 
|-------------------------------------------------------| 
|----------------------------------------------9--12----| 
|-10--9--7h9p7--------------10--9--12--10-9--9----------| 
|---------------9-10---10-------------------------------| 
|-------------------------------------------------------| 
| 
|-------------------------------------------------------| 
|-------------------------------------------------------| 
|-------------------------------------------------------| 
|-------------------------------------------------------| 
|-12-10-9h10p9--------------12-10--14--12-10-10---------| 
|--------------10-12---12-------------------------------| 

Riff 9 (1 time) 
|---------------------------------------------------| 
|---------------------------------------------------| 
|---------------------------------------------------| 
|---------------------------------------------------| 
|------------------------------------------222-2222-| 
|-8-----5--7-----0--2-3-2-0-8-----5--7-----000-0000-| 
| 
|---------------------------------------------------| 
|---------------------------------------------------| 
|---------------------------------------------------| 
|---------------------------------------------------| 
|------------------------------------------222-2222-| 
|-5-----0--3-----0--2-3-2-0-5-----0--3-----000-0000-| 

Riff 10 (2 times) 
|---------------------------------------------------| 
|---------------------------------------------------| 
|---------------------------------------------------| 
|---------------------------------------------------| 
|------------------------------------7-----222-2222-| 
|-8-----5--7-----0--2-3-2-0-8-----5--------000-0000-| 
| 
|---------------------------------------------------| 
|---------------------------------------------------| 
|---------------------------------------------------| 
|---------------------------------------------------| 
|------------------------------------------222-2222-| 
|-5-----0--3-----0--2-3-2-0-5-----0--8-----000-0000-| 

Riff 11 (1 time) 
|---------------------------------------------------| 
|---------------------------------------------------| 
|---------------------------------------------------| 
|---------------------------------------------------| 
|----------7-------9-109-7-12-----7--10----222-2222-| 
|-8-----5--------0-------------------------000-0000-| 
| 
|---------------------------------------------------| 
|---------------------------------------------------| 
|---------------------------------------------------| 
|---------------------------------------------------| 
|------------------------------------------222-2222-| 
|-5-----0--3-----0--2-3-2-0-5-----0--8-----000-0000-| 

Riff 12 (1 time) 
|-------------------------------------------------------| 
|-------------------------------------------------------| 
|-17-16-14h16p14------------17--16------14-b(16)r14-----| 
|----------------16-17--17--------------------------17--| 
|-------------------------------------------------------| 
|-------------------------------------------------------| 
| 
|-------------------------------------------------------| 
|-------------------------------------------------------| 
|-------------------------------------------------------| 
|-19-17-16h17p16------------19-17h19p17-16-b(17)r16-----| 
|----------------17-19------------------------------19--| 
|-------------------------------------------------------| 

Riff 12 cont. 
|-----------------------------------------------------------| 
|-----------------------------------------------------------| 
|-17-16-14h16p14------------17--16--19--17-16--16h17p16-14--| 
|----------------16-17--17----------------------------------| 
|-----------------------------------------------------------| 
|-----------------------------------------------------------| 
| 
|-----------------------------------------------------------| 
|-----------------------------------------------------------| 
|-----------------------------------------------------------| 
|-19-17-16h17p16------------19--17--21--19-17--17h19p17-16--| 
|----------------17-19--------------------------------------| 
|-----------------------------------------------------------| 

Riff 12 cont. 
|-------------------------------------------------------| 
|-------------------------------------------------------| 
|-17-16-14h16p14------------17-16h17p16-14-b(16)r14-----| 
|----------------16-17--17--------------------------17--| 
|-------------------------------------------------------| 
|-------------------------------------------------------| 
| 
|-------------------------------------------------------| 
|-------------------------------------------------------| 
|-------------------------------------------------------| 
|-19-17-16h17p16------------19-17h19p17-16-b(17)r16-----| 
|----------------17-19--19--------------------------19--| 
|-------------------------------------------------------| 

Riff 12 cont. 
|----------------------------------------------------------------------| 
|----------------------------------------------------------------------| 
|-17-16-14h16p14------------17--16--19--17-16--16---17h19p17p16-14-16--| 
|----------------16-17--17---------------------------------------------| 
|----------------------------------------------------------------------| 
|----------------------------------------------------------------------| 
| 
|----------------------------------------------------------------------| 
|----------------------------------------------------------------------| 
|----------------------------------------------------------------------| 
|-19-17-16h17p16------------19--17--21--19-17--17---19h21p19p17-16-17--| 
|----------------17-19--19---------------------------------------------| 
|----------------------------------------------------------------------| 


Fill 
|----------------| 
|----------------| 
|----------------| 
|----------------| 
|-4-5-4-5-7--5-4-| 
|-2-3-2-3-5--3-2-| 
. . . .    . . 

Repeat Riff 1 (1 time) 
Repeat Riff 2 (1 time) 
Repeat Riff 7 (1 time) 
Repeat Riff 3 (4 times) 
Repeat Riff 4 (1 time) 
Repeat Riff 5 (2 times) 
Repeat Riff 6 (1 time) 

Check Out Death Warp, With More Transcriptions On It:
 http://www.sorrowsend.com/DeathWarp/
Добавлено: 23.03.2012
Вам также может быть интересно:
Другие материалы по этой песне:
  • Аккорды и текст

Страница создана 23.03.2012
http://primanota.ru/god-dethroned/the-poison-apple-chords.htm
Привет, Гость.
Предлагаем пройти революционный курс по гитаре.
Подарок от PrimaNota.Ru, забирай!