PrimaNota.ru - самый крупный в мире бесплатный архив песенных текстов, аккордов, табулатур и нот


God Dethroned - The Grand Grimoire - текст песни, таба, видео

Регистрация Запомнить меня
Войти через:  Facebook Google Twitter Vk Yandex Mail.ru

God Dethroned - The Grand Grimoire - текст песни, таба, видео

Печатать
Просмотров: 154
                     GOD DETHRONED - THE GRAND GRIMOIRE 
                      From the Album THE GRAND GRIMOIRE 
                    Copyright 1997 (Metal Blade Records) 
                           Version 1.2 - July 2001 

Transcribed by: Chris Ninman 

For Questions, Comments, Newest Version, or Corrections contact 
 Chris Ninman at: snowballingblood@hotmail.com 

Check Out Death Warp, With More Transcriptions On It:
 http://www.sorrowsend.com/DeathWarp/

.  - palm mute                    /  - slide up to 
\  - slide down to                ~  - vibrato 
h  - hammer on                    b  - bend 
p  - pull off                          Suffixes for bend 
ph - pinch harmonic                     f - full bend    h - half bend 
*  - see comment                        r - release      t - tap bend 
X  - percussion mute                    ~ - vibrato bend 
@  - slight palm mute             () - ghost note, sustained note 
"  - tremolo pick until next note 

Tuning C# (C#,F#,B,E,G#,C#) 

Riff 1 (2 times) 
|------------------------------------------------------| 
|------------------------------------------------------| 
|------------------------------------------------------| 
|------------------------------------------------------| 
|------------------------------------------------------| 
|-0000557755778888887788101000005577557788888877101088-| 

Riff 1 cont. 
|------------------------------------------------------| 
|------------------------------------------------------| 
|------------------------------------------------------| 
|------------------------------------------------------| 
|------------------------------------------------------| 
|-0000557755778888887788101000005577557788888810108877-| 


Riff 2 (2 times) 
|-------------------------------------------------------| 
|-------------------------------------------------------| 
|-------------------------------------------------------| 
|------------9"10"9"7"------------------9"10"9"7"-------| 
|-------7"------------10"----------7"------------10"----| 
|-0"-------------------------0"-------------------------| 

Riff 2 cont. 
|---------------------------------------------------------| 
|---------------------------------------------------------| 
|---------------------------------------------------------| 
|------------9"10"9"7"------------------9"10"9"7"---------| 
|-------8"------------10"----------8"------------10"------| 
|-0"-------------------------0"---------------------------| 
| 
|---------------------------------------------------------| 
|---------------------------------------------------------| 
|---------------------------------------------------------| 
|------------9"10"9"7"12"---------------9"10"9"7"12"10"9"-| 
|-------8"-------------------------8"---------------------| 
|-0"-------------------------0"---------------------------| 

Repeat Riff 1 (2 times) 
Repeat Riff 2 (2 times) 

Riff 3 (1 time) 
|----------------------------------------------------| 
|----------------------------------------------------| 
|----------------------------------------------------| 
|---------------------------------9"10"9"7"----------| 
|-------10"--------8"--------7"------------10"-------| 
|-0"----------0"--------0"---------------------------| 

Riff 3 cont. 
|----------------------------------------------------| 
|----------------------------------------------------| 
|----------------------------------------------------| 
|---------------------------------9"10"9"7"----------| 
|-------10"--------8"--------7"------------10"-------| 
|-0"----------0"--------0"---------------------------| 
| 
|----------------------------------------------------| 
|----------------------------------------------------| 
|----------------------------------------------------| 
|----------------------------9"-----10"9"7"----------| 
|-------10"-------12"----------------------10"-------| 
|-0"----------0"--------0"---------------------------| 

Riff 4 (4 times) 
|------------------------------------------------------------| 
|------------------------------------------------------------| 
|------------------------------------------------------------| 
|------------------------------------------------------------| 
|-2------2------2------5/4---5/4---5------5------7/5---7/5---| 
|-0--000-0--000-0--000-3/2-0-3/2-0-3--333-3--333-5/3-0-5/3-0-| 
    ...    ...    ...     .     .    ...    ...     .     . 

Riff 4 cont. 
|-------------| 
|-------------| 
|-------------| 
|-------------| 
|-5/4---5/4---| 
|-3/2-0-3/2-0-| 
     .     . 
*Riff 5 is played once, while Riff 4 is played 4 times under it. 

Riff 5 (1 time) 
|------------------------------------------------------------| 
|------------------------------------------------------------| 
|--------------------------7"--------------------------------| 
|------9"--------9"10"9"------9"-7"-----12"------12"13"12"---| 
|-7"--------7"----------------------10"----10"---------------| 
|------------------------------------------------------------| 

Riff 5 cont. 
|---------------------------------------------------------------| 
|---------------------------------------------------------------| 
|---------------------------------------------------------------| 
|----------9"-----------9"--------9"10"9"---------------7"------| 
|-12"--------------7"--------7"-------------7"-9"-7"-5"---------| 
|---------------------------------------------------------------| 

Riff 5 cont. 
|----------------------------------------------------------------| 
|----------------------------------------------------------------| 
|--------------------------------------------------9"------------| 
|------------------------------9"--------9"10"9"------9"-7"------| 
|-5"------7"--------------7"--------7"----------------------10"--| 
|-----------------5"---------------------------------------------| 

Riff 5 cont. 
|----------------------------------------------------------------| 
|----------------------------------------------------------------| 
|----------------------------------------------------------------| 
|-12"------12"13"12"------------9"-----------9"--------9"10"9"---| 
|----10"---------------12"--------------7"--------7"-------------| 
|----------------------------------------------------------------| 
Riff 5 cont. 
|--------------------------| 
|--------------------------| 
|----------------7"-9"-----| 
|-------------7"-------7"--| 
|-7"-9"-7"-5"--------------| 
|--------------------------| 

Riff 6 (1 time) 
|---------------------------------------------------------------| 
|---------------------------------------------------------------| 
|---------------------------------------------------------------| 
|---------------------------------------------------------------| 
|-2-----------------------------3-------------3-----------------| 
|-0--rest-----------------------1-------------1--rest-----------| 
| 
|---------------------------------------------------------------| 
|---------------------------------------------------------------| 
|--------------------------10"9"-------------------9"10"9"7"----| 
|-9"---10"9"7"----7"9"10"9"---------9"10"9"7"----7"---------10"-| 
|-------------10"---------------8"-----------10"----------------| 
|---------------------------------------------------------------| 
| 
|---------------------------------------------------------------| 
|---------------------------------------------------------------| 
|---------------------------------------------------------------| 
|-9~----rest----------------------------------------------------| 
|---------------------------------------------------------------| 
|---------------------------------------------------------------| 

Riff 7 (4 times) 
|----------------------------------------------------------------| 
|----------------------------------------------------------------| 
|---------------------------10"9"-------------------9"10"9"7"----| 
|-----9"10"9"7"----7"9"10"9"---------9"10"9"7"----7"---------10"-| 
|-7"-----------10"---------------8"-----------10"----------------| 
|----------------------------------------------------------------| 
| 
|----------------------------------------------------------------| 
|----------------------------------------------------------------| 
|----------------------------------------------7"----------------| 
|---------------9"-10"9"7"------------------10"---10"9"7"--------| 
|-7"----------------------10"8"7"8"------------------------10"9"-| 
|-----5"7"---------------------------7"8"------------------------| 

Riff 7 cont. 
|----------------------------------------------------------------| 
|----------------------------------------------------------------| 
|---------------------------10"9"-------------------9"10"9"7"----| 
|-----9"10"9"7"----7"9"10"9"---------9"10"9"7"----7"---------10"-| 
|-7"-----------10"---------------8"-----------10"----------------| 
|----------------------------------------------------------------| 
| 
|----------------------------------------------------------------| 
|----------------------------------------------------------------| 
|----------------------------------------------7"----------------| 
|---------------9"-10"9"7"------------------10"---10"9"7"--------| 
|-7"----------------------10"8"7"8"------------------------10"9"-| 
|-----5"7"---------------------------7"8"------------------------| 

*Riff 7 is not lined up very well, just listen to CD to hear how 
the two guitars fit together. 

Repeat Riff 1 (2 times) 

Riff 8 (2 times) 
|----------------------------------------------------------------| 
|----------------------------------------------------------------| 
|----------------------------------------------------------------| 
|-4-------------------7----------7--------------------9----------| 
|-2-------------------5----------7--------------------7----------| 
|-2-------------------5----------5--------------------7----------| 
| 
|----------------------------------------------------------------| 
|----------------------------------------------------------------| 
|-----11--9----11-9---9--------------11--9----11-9---9-----------| 
|-9------------------------------9-------------------------------| 
|----------------------------------------------------------------| 
|----------------------------------------------------------------| 
| 
|----------------------------------------------------------------| 
|----------------------------------------------------------------| 
|----------------------------------------------------------------| 
|-----12--11---12-11-----------------12--11---12-11---9----------| 
|-9-------------------12---------9-----------------12------------| 
|----------------------------------------------------------------| 

Riff 9 (2 times) 
|-----------------------------------------------------------------| 
|-----------------------------------------------------------------| 
|-----------------------------------------------------------------| 
|-----------------------------------------------------------------| 
|-5---------------5----5---4------2-------------222------4--------| 
|-3---------------3----3---2------0-------------000------2--------| 
| 
|----15------1514----15------1514----15------1514----15------1514-| 
|-12----12-12-----12----12-12-----12----12-12-----12----12-12-----| 
|-----------------------------------------------------------------| 
|-----------------------------------------------------------------| 
|-----------------------------------------------------------------| 
|-----------------------------------------------------------------| 
| 
|-----------------------------------------------------------------| 
|-----------------------------------------------------------------| 
|----12-11---1211----12-11---1211----12-11---1211---12-11---1211--| 
|-9--------9------9--------9------9--------9------9-------9-------| 
|-----------------------------------------------------------------| 
|-----------------------------------------------------------------| 

Repeat Riff 8 (2 times) 
Repeat Riff 9 (2 times) 

Riff 10 (4 times) 
|------------------------------------------------------------------| 
|------------------------------------------------------------------| 
|------------------------------------------------------------------| 
|------------------5"-9"----------------------------7"---5"7"9"7"--| 
|------------5"-3"---------7"--------------5"-3"-5"----------------| 
|-0"---2"-3"--------------------0"---2"-3"-------------------------| 

Repeat Riff 7 (2 times) 
Repeat Riff 10 (2 times) 
Repeat Riff 1 (2 times) (under solo, which I have not done) 
Repeat Riff 2 (2 times) 
Repeat Riff 3 (1 time) 
Repeat Riff 4 (4 times)/Riff 5 (1 time) *like before 

Ending 
|------| 
|------| 
|------| 
|------| 
|-2----| 
|-0----| 
| 
|------| 
|------| 
|------| 
|-9~---| 
|------| 
|------| 

Check Out Death Warp, With More Transcriptions On It:
 http://www.sorrowsend.com/DeathWarp/
Добавлено: 21.07.2012
Другие материалы по этой песне:
  • Аккорды и текст

Страница создана 30.04.2012
http://primanota.ru/god-dethroned/the-grand-grimoire-chords.htm
Привет, Гость.
Предлагаем пройти революционный курс по гитаре.
Подарок от PrimaNota.Ru, забирай!