PrimaNota.ru - самый крупный в мире бесплатный архив песенных текстов, аккордов, табулатур и нот


God Dethroned - Hating Life - текст песни, таба, видео

Регистрация Запомнить меня
Войти через:  Facebook Google Twitter Vk Yandex Mail.ru

God Dethroned - Hating Life - текст песни, таба, видео

Печатать
Просмотров: 140
Song: Hating Life
By: God Dethroned
Album: The Toxic Touch


This is an awesome song by an awesome band!


----------------------------------------------------------------|
----------------------------------------------------------------|
----------------------------------------------------------------|
----------------------------------------------------------------|
-------------------------------------------------------5h8-8p5--|
000-0-000-0-000-000-0-000-0-000-000-0-000-0-000-000-000---------| x9
... . ... . ... ... . ... . ... ... . ... . ... ... ...

-----------------------------------------------|
-----------------------------------------------|
-----------------------------------------------|
-----------------------------------------------|
7--------7h10---7p5---8p7-------7p5------------|
--000-000----000---000---000-000---00-000-000--| x4
  ... ...    ...   ...   ... ...   .. ... ...

-----------------------------------------------------------------|
-----------------------------------------------------------------|
-----------------------------------------------------------------|
-----------------------------------------------------------------|
2-----10-1212-14-14-14-14-12-10-2-----10-1212-14-14-14-14-12-10--|
0-000---0----0--0--0--0---------0-000---0----0--0--0--0----------|
  ...   .    .  .  .  .           ...   .    .  .  .  .

-----------------------------------------------------------------|
-----------------------------------------------------------------|
-----------------------------------------------------------------|
-----------------------------------------------------------------|
5-----10-1212-14-14-14-14-12-10-2-----10-1212-14-14-14-14-12-10--|
3-000---0----0--0--0--0---------0-000---0----0--0--0--0----------| x3
  ...   .    .  .  .  .           ...   .    .  .  .  .

----------------------------------|
----------------------------------|
----------------------------------|
---------4--------7--------12-11--|
5--------2-222222-5-555555-10-9---|
3-333333--------------------------|
  ......   ......   ......

                  Tens                         Twelves and Tens
---------------------------------------------------------------------------|
---------------------------------------------------------------------------|
---------------------------------------------------------------------------|
--------------1010101010101010-----------------12121212121212121010101010--|
999999999999998888888888888888-7-9999999999999910101010101010108888888888--|
77777777777777-----------------5-77777777777777----------------------------|

-----|
-----|
-----|              Just strum however long the measures are.
9-7--|
7-5--|
-----|

---------------------------------------------------------------------------|
---------------------------------------------------------------------------|
---------------------------------------------------------------------------|
--------------1010101010101010-----------------12121212121212121010101010--|
999999999999998888888888888888-7-9999999999999910101010101010108888888888--|
77777777777777-----------------5-77777777777777----------------------------|

---------|
---------|
---------|
9/7-7/5--|
7/5-5/3--|
---0-----|
   .

-----------------------------------------------------------------|
-----------------------------------------------------------------|
-----------------------------------------------------------------|
-----------------------------------------------------------------|
2-----10-1212-14-14-14-14-12-10-2-----10-1212-14-14-14-14-12-10--|
0-000---0----0--0--0--0---------0-000---0----0--0--0--0----------|
  ...   .    .  .  .  .           ...   .    .  .  .  .

-----------------------------------------------------------------|
-----------------------------------------------------------------|
-----------------------------------------------------------------|
-----------------------------------------------------------------|
5-----10-1212-14-14-14-14-12-10-2-----10-1212-14-14-14-14-12-10--|
3-000---0----0--0--0--0---------0-000---0----0--0--0--0----------| x2

  ...   .    .  .  .  .           ...   .    .  .  .  .

----------------------------------|
----------------------------------|
----------------------------------|
---------4--------7--------12-11--|
5--------2-222222-5-555555-10-9---|
3-333333--------------------------|
  ......   ......   ......

------------------------------------|
------------------------------------|
------------------------------------|
------------------------------------|
--------2--------------2---5h8-8p5--|
000000000------000000000------------|
........       ........

------------------------------------|
---------------------------5h8-8p5--|
------------------------------------|
------------------------------------|
--------2--------------2------------|
000000000------000000000------------| x2
........       ........

----------------------------------------------------|
----------------------------------------------------|
----------------------------------------------------|
----------------------------------------------------|
--------2-------------------------2--------5h8-8p5--|
000000000-0-0-0-0-0-0-0-0-000000000-0-0-0-0---------|
........  . . . . . . . . ........  . . . .

----------------------------------------------------|
-------------------------------------------5h8-8p5--|
----------------------------------------------------|
----------------------------------------------------|
--------2-------------------------2-----------------|
000000000-0-0-0-0-0-0-0-0-000000000-0-0-0-0---------| x2
........  . . . . . . . . ........  . . . .

Solo
---------------------------------------------|
8-5-3-5-3-0-3-5-8-5-3-5-3-0-3-5-8~-8-7-5-7~--|
---------------------------------------------|
---------------------------------------------|
---------------------------------------------|
---------------------------------------------|

--------------------------------------------------|
5-7-8-5-3-5-3-0-3-5-8-5-3-5-3-0-3-5-8~-8-7-5-7b8--|
--------------------------------------------------|
--------------------------------------------------|
--------------------------------------------------|
--------------------------------------------------|

15-12-10-12-10----10-12-15-12-10----10-12-15~-15-14-12-14~--|
---------------12----------------12-------------------------|
------------------------------------------------------------|
------------------------------------------------------------|
------------------------------------------------------------|
------------------------------------------------------------|

12-10----10-15-10---10-12-10----10-15-10------|
------12----------12---------12----------12~--|
----------------------------------------------|
----------------------------------------------|
----------------------------------------------|
----------------------------------------------|

10-7---7-10-14-10----10-14-19-15----15-19-22-19----19-22-24/--|
-----8------------12-------------17-------------20------------|
--------------------------------------------------------------|
--------------------------------------------------------------|
--------------------------------------------------------------|
--------------------------------------------------------------|

-----------------------------------------------------------------|
-----------------------------------------------------------------|
-----------------------------------------------------------------|
-----------------------------------------------------------------|
2-----10-1212-14-14-14-14-12-10-2-----10-1212-14-14-14-14-12-10--|
0-000---0----0--0--0--0---------0-000---0----0--0--0--0----------|
  ...   .    .  .  .  .           ...   .    .  .  .  .

-----------------------------------------------------------------|
-----------------------------------------------------------------|
-----------------------------------------------------------------|
-----------------------------------------------------------------|
5-----10-1212-14-14-14-14-12-10-2-----10-1212-14-14-14-14-12-10--|
3-000---0----0--0--0--0---------0-000---0----0--0--0--0----------| x3
  ...   .    .  .  .  .           ...   .    .  .  .  .

----------------------------------|
----------------------------------|
----------------------------------|
---------4--------7--------12-11--|
5--------2-222222-5-555555-10-9---|
3-333333--------------------------|
  ......   ......   ......

                  Tens                         Twelves and Tens
---------------------------------------------------------------------------|
---------------------------------------------------------------------------|
---------------------------------------------------------------------------|
--------------1010101010101010-----------------12121212121212121010101010--|
999999999999998888888888888888-7-9999999999999910101010101010108888888888--|
77777777777777-----------------5-77777777777777----------------------------|

-----|
-----|
-----|               Just strum however long the measures are.
9-7--|
7-5--|
-----|

---------------------------------------------------------------------------|
---------------------------------------------------------------------------|
---------------------------------------------------------------------------|
--------------1010101010101010-----------------12121212121212121010101010--|
999999999999998888888888888888-7-9999999999999910101010101010108888888888--|
77777777777777-----------------5-77777777777777----------------------------|

-------------------------------------------|
-------------------------------------------|
-------------------------------------------|
9/7-7/5-----------4--------7---------------|
7/5-5/3--5--------2-222222-5-555555-5-4-2--|
---0-----3-333333-------------------3-2-0--|
   .       ......   ......   ......


Alright, so there you have it. If you get confused just listen to the song and you'll be 
to put it together.

Thank you, and please rate!
Добавлено: 06.06.2012
Другие материалы по этой песне:

Страница создана 06.06.2012
http://primanota.ru/god-dethroned/hating-life-chords.htm
Привет, Гость.
Предлагаем пройти революционный курс по гитаре.
Подарок от PrimaNota.Ru, забирай!