PrimaNota.ru - самый крупный в мире бесплатный архив песенных текстов, аккордов, табулатур и нот


God Dethroned - Boiling Blood - текст песни, таба, видео

Регистрация Запомнить меня
Войти через:  Facebook Google Twitter Vk Yandex Mail.ru

God Dethroned - Boiling Blood - текст песни, таба, видео

Печатать
Просмотров: 131
BOILING BLOOD (track 4 from BLOODY BLASPHEMY) >>>>>GOD DETHRONED   TUNING=D
corrections, etc.:parisc97@erols.com
t = trill   = repeat previous "measure"   \ = slide down   / = slide up
PALM MUTE where feels necessary especially during Break and Intro, etc.

    INTRO
e |--------------------------------------------------------------------
B |--------------------------------------------------------------------
G |--------------------------------------------------------------------
D |--------------------------------------------------------------------
A |------------------------------9------------------------9-7----------
E |-2-2-2-2--5--2-2--5--2-2--5---7-2-2-2-2--5--2-2-5--2-2-7-5--2-2-2-2-

TREM PICK ALL SINGLE NOTES, rhythm here stays constant, don't worry if my
spaces
don't add up

e ----------------------------------------------------------------------
B ----------------------------------------------------------------------
G ----------------------------------------------------------------------
D ----------------------------------------------------------------------
A -----------------9-----------------------9-7-------------------------7
E 5--2-2-5--2-2-5--7-2-2-2-2-5--2-2-5--2-2-7-5-0-0-0-0-3--0-0-3--0-0-3-5

e -------------------------------------------------------------------
B -------------------------------------------------------------------
G -------------------------------------------------------------------
D --------------------------------------------------------------------
A -----------------------9-7------------------------7-----------------
E -0-0-0-0-3--0-0-3--0-0-7-5--0-0-0-0-3-0-0-3-0-0-3-5-0-0-0-0-3-0-0-3-

e ---------------------------------------------------------------------
B ---------------------------------------------------------------------
G ---------------------------------------------------------------------
D ---------------------------------------------------------------------
A ----9-7-------------------------9------------------------9-7---------
E 0-0-7-5-2-2-2-2-5--2-2-5--2-2-5-7--2-2-2-2-5--2-2-5--2-2-7-5-2-2-2-2-

e ------------------| Bastard, bastard, a purple haze is all I see. Boiling
bloo
B ------------------| Foam at your mouth, your eyes turn away. Boiling
blood.
G ------------------|
D ------------------|
A ----------------9-|
E 5--2-2-5--2-2-5-7-|

   RIFF A
e
|--------------------------------------------------------------------------
B
|--------------------------------------------------------------------------
G
|--------------------------------------------------------------------------
D
|--------------------------------------------------------------------------
A
|-7777777t8777t8-777777t81010101010101010p771010p7101010101010-88877777t87t8
E
|--------------------------------------------------------------------------

e -----------------------------------------------------------------|
B -----------------------------------------------------------------|
G -----------------------------------------------------------------|
D -------7-7-9-----------------------------------------------------|
A 777t87-5-5-7-basically same thing with some different chords at the end|
E -----------------------------------------------------------------|


   RIFF B (not sure) or at 5th fret, then this riff, then back to 5th like
e |-----------------| in the intro.
B |-----------------|
G |-----------------| I'm a voodoo child and I just finished this little
puppet.
D |-----------------| The spitting image of you. I'm gona torture this
little
A |-------------3---| creature. / Pathetic lookalike of a looser that's you.
E |-3-3-5-3-6-3---6-| Stick needles and pins in it's spine now you're lame.
   ALL TREM PICK      Saw off your legs and suck out your brains.
(bastard...)

RIFF A, with verse 1

   BREAK stuff like that...
e |--------------------------------------------------------------------|
B |--------------------------------------------------------------------|
G |--------------------------------------------------------------------|
D |----------------------------------------------------7\5-/10-9-7\5/9-|
A |-------------------------------5\4-/8-7-5\4/5-------5\3-/8--7-5\3/7-|
E |-0-0-0-00-0-0-00-0-\  2-/6-5-3\2/3-0-0-0-----------------|
"In my vein's, boiling blood. Through my brain's, boiling blood.
Stabbing victim's, boiling blood. Draining bodies, boiling blood.
!BOILING BLOOD 4x!"

RIFF B, RIFF A with verse 1.
Добавлено: 29.07.2012
Другие материалы по этой песне:

Страница создана 03.05.2012
http://primanota.ru/god-dethroned/boiling-blood-chords.htm
Привет, Гость.
Предлагаем пройти революционный курс по гитаре.
Подарок от PrimaNota.Ru, забирай!