PrimaNota.ru - самый крупный в мире бесплатный архив песенных текстов, аккордов, табулатур и нот


God Damn - Vultures - таба, видео

Регистрация Запомнить меня
Войти через:  Facebook Google Twitter Vk Yandex Mail.ru

God Damn - Vultures - таба, видео

Печатать
Просмотров: 211
Уроки эстрадного вокала в Санкт-Петербурге
-------------------------------------------------------------------------------
                             Vultures - God Damn
-------------------------------------------------------------------------------
Tabbed by: Charlie Austin

Tuning: Drop D

Listen to Song for the Rhythm


Intro

e|-4--4--4--2--------------7----7--7-----------------------------------------10----10--10-10-7----7----|
B|-5--5--5--3--------------8----8--8-----------------------------------------11----11--11-11-8----8----|
G|-4--4--4--2-----7--------7----7--7-----7-----7-----------------------------10----10--10-10-7----7----|
D|-2--2--2--0--7-----7--5--5----5--5--7-----8-----9--9--9---9--9--9---9--9---8-----8---8--8--5----5----|
A|------------------------------------------------9--9--9---9--9--9---9--9---8-----8---8--8--5----5----|
D|------------------------------------------------9--9--12--9--9--12--9--12--8-----8---8--8--5----5----|


Verse 1

Play 4 Times
e|-----------------------------------------------------------------------------------------------------|
B|-----3--------3-------------8--------8---10-------5--------5------------5--------3-------------------|
G|--------2--------2-------------7---------------------4---------4-----------3--------2----------------|
D|-----------------------------------------------------------------------------------------------------|
A|-----------------------------------------------------------------------------------------------------|
D|-0---------0--------0---8---------8-----------5---------5--------5--4---------3--------3--REPEAT-----|


Chorus

Play 2 Times
e|-4--4--4--2--------------7----7--7-----------------------------------------10----10--10-10-7----7----|
B|-5--5--5--3--------------8----8--8-----------------------------------------11----11--11-11-8----8----|
G|-4--4--4--2-----7--------7----7--7-----7-----7-----------------------------10----10--10-10-7----7----|
D|-2--2--2--0--7-----7--5--5----5--5--7-----8-----9--9--9---9--9--9---9--9---8-----8---8--8--5----5----|
A|------------------------------------------------9--9--9---9--9--9---9--9---8-----8---8--8--5----5----|
D|------------------------------------------------9--9--12--9--9--12--9--12--8-----8---8--8--5----5----|


Verse 2 Part 1

Play 6 Times
e|-----------------------------------------------------------------------------------------------------|
B|-----3--------3-------------8--------8---10-------5--------5------------5--------3-------------------|
G|--------2--------2-------------7---------------------4---------4-----------3--------2----------------|
D|-----------------------------------------------------------------------------------------------------|
A|-----------------------------------------------------------------------------------------------------|
D|-0---------0--------0---8---------8-----------5---------5--------5--4---------3--------3--PLAY Pt. 2-|


Verse 2 Part 2 (Pre-Chorus)

Play 2 Times
e|-2-----------10------10/12--12--7---------6------5---------------------------------------------------|
B|-3-----------11------11/13--13--8---------7------6---------------------------------------------------|
G|-2-----------10------10/12--12--7---------6------5---------------------------------------------------|
D|-0-----------8-------8/10---10--5---------4------3---------------------------------------------------|
A|-0-----------8-------8/10---10--5---------4------3---------------------------------------------------|
D|-0-----------8-------8/10---10--5---------4------3-----REPEAT----------------------------------------|


Chorus

Play 2 Times
e|-4--4--4--2--------------7----7--7-----------------------------------------10----10--10-10-7----7----|
B|-5--5--5--3--------------8----8--8-----------------------------------------11----11--11-11-8----8----|
G|-4--4--4--2-----7--------7----7--7-----7-----7-----------------------------10----10--10-10-7----7----|
D|-2--2--2--0--7-----7--5--5----5--5--7-----8-----9--9--9---9--9--9---9--9---8-----8---8--8--5----5----|
A|------------------------------------------------9--9--9---9--9--9---9--9---8-----8---8--8--5----5----|
D|------------------------------------------------9--9--12--9--9--12--9--12--8-----8---8--8--5----5----|


Outro

Play Many Times

Play a scale based on d major going up. From bottom D string, fret 12, play very fast.

************************************

| /   slide up
| \   slide down
| h   hammer-on
| p   pull-off
| ~   vibrato
| +   harmonic
| x   Mute note
| b   Bend
| pb  Pre-bend
| br  Bend release
| pbr Pre-bend release
| brb Bend release bend

************************************
Добавлено: 22.02.2016
Другие материалы по этой песне:
  • Аккорды и текст

Страница создана 22.02.2016
http://primanota.ru/god-damn/vultures-chords.htm
Привет, Гость.
Предлагаем пройти революционный курс по гитаре.
Подарок от PrimaNota.Ru, забирай!