PrimaNota.ru - самый крупный в мире бесплатный архив песенных текстов, аккордов, табулатур и нот


Goblini - Lsd Se Vraca Kuci - таба, видео

Регистрация Запомнить меня
Войти через:  Facebook Google Twitter Vk Yandex Mail.ru

Goblini - Lsd Se Vraca Kuci - таба, видео

Печатать
Просмотров: 97
goblini
lsd se vraca kuci
tabed by scepa


Theme: 
E5            C5 C5               E5            D5 D5
E|----|----------------|----------------|----------------|----------------|
H|----|----------------|----------------|----------------|----------------|
G|----|----------------|----------------|----------------|----------------|
D|----|--------------5-|--5-5-----5-----|--------------7-|--7-7-----7-----|
A|----|2---2---2-2-2-3-|--3-3-----3-----|2---2---2-2-2-5-|--5-5-----5-----|
E|3b4-|0---0---0-0-0---|------------3b4-|0---0---0-0-0---|------------3b4-|  



E5            C5 C5               G5               A5E
E|----------------|----------------|----------------|----------------|
H|----------------|----------------|----------------|----------------|
G|----------------|----------------|----------------|----------------|
D|--------------5-|--5-5-----5-5---|----------------|----------------|
A|2---2---2-2-2-3-|--3-3-----3-3---|5---5---5---5---|7---7---7-------|
E|0---0---0-0-0---|----------------|3-3-3-3-3-3-3-3-|5-5-5-5-5-5-3b4-|  


E5            C5 C5               G5               A5E
E|----------------|----------------|----------------|----------------|
H|----------------|----------------|----------------|----------------|
G|----------------|----------------|----------------|----------------|
D|--------------5-|--5-5-----5-5---|----------------|----------------|
A|2---2---2-2-2-3-|--3-3-----3-3---|5---5---5---5---|7---7---7-------|
E|0---0---0-0-0---|----------------|3-3-3-3-3-3-3-3-|5-5-5-5-5-5-3b4-|



E5            C5 C5               E5            D5 D5
E|----------------|----------------|----------------|----------------|
E|----------------|----------------|----------------|----------------|
H|----------------|----------------|----------------|----------------|
G|----------------|----------------|----------------|----------------|
D|--------------5-|--5-5-----5-5---|----------------|7---7---7---7---|
A|2---2---2-2-2-3-|--3-3-----3-3---|5---5---5---5---|5-5-5-5-5-5-5-5-|
E|0---0---0-0-0---|----------------|3-3-3-3-3-3-3-3-|----------------|  



E5          C5             E5       D5
Ti si jedan nemarno ugasen opusak u piksli
E5  C5       G5      A5          E5
Izgorela si, al' jos uvek osecam smrad
E5    C5             E5       D5 
Zivim zivot mudraca, citam ti misli
E5             C5     G5  D5             
Fis5Dozivljavas me polovno, i bezis, bezis u grad  



chorus:
Fis5      D5     A5 H5         Fis5
Jagode su jagode i supermen je jak
Ali od tvog dodira trese me jos sad
Ti nikad neces saznati koliko sam slab
Daj mi sutra, daj mi sutra, daj mi sutra
Ja ti mogu dati samo lazan osecaj sjaja
Imam milion godina i nadzivecu boje
Tebi okrecem ledja, nisi stigla do kraja
Nemas snage baby, nemas volje  



last chorus:

Gis5      E5     H5 Cis5       Gis5
Jagode su jagode i supermen je jak
Ali od tvog dodira trese me jos sad
Ti nikad neces saznati koliko sam slab
Daj mi sutra, daj mi sutra, daj mi sutra sad  



used chords:

E5  -02XXXX
C5  -X35XXX
D5  -X57XXX
G5  -35XXXX
A5  -57XXXX
Fis5-24XXXX
H5  -X24XXX
Gis5-46XXXX
Cis5-X46XXX

:)
Добавлено: 01.07.2012
Другие материалы по этой песне:
  • Аккорды и текст

Страница создана 01.07.2012
http://primanota.ru/goblini/lsd-se-vraca-kuci-chords.htm
Привет, Гость.
Предлагаем пройти революционный курс по гитаре.
Подарок от PrimaNota.Ru, забирай!