PrimaNota.ru - самый крупный в мире бесплатный архив песенных текстов, аккордов, табулатур и нот


Goblin - Profondo Rosso - бас-таба, видео

Регистрация Запомнить меня
Войти через:  Facebook Google Twitter Vk Yandex Mail.ru

Goblin - Profondo Rosso - бас-таба, видео

Печатать
Просмотров: 80
-------------------------------------------------------------------------------
                            PROFONDO ROSSO (DEEP RED) - Goblin
-------------------------------------------------------------------------------

Artista: Goblin
Canzone: Profondo Rosso (Colonna sonora - Ost)
Accordatura Standard E(mi) A(la) D(re) G(sol)
Tab: Danko Cardi (Look for me on Fb)
 
 Per qualsiasi considerazione mi trovate su Fb (Danko Cardi)
        
                           
|--------------------||-------------------|
|-----7-57-----------||-----7-57---5------|
|------------7-55-7--||--------------2----| 
|-5------------------||--5-------------3--|


|--------------------||-------------------------|
|-----7-57-----------||-----7-57---------5------|
|------------7-55-7--||-----------7--5-7---7-5--| X 7
|-5------------------||--5----------------------|

|--------------------||--------------||------------|
|-------3----3/12----||------7-7/12--||------7-7---|
|--------------------||-----7--------||----7----7--|
|-1------------------||--5-----------||--5---------|

|-------------------||---------------|
|------7-7/12-------||------7-7------|
|-----7-------------||----7----7-----| (pausa-rest)
|--5----------------||--5---------5--|


|------------------------|              |------------------------------|
|--------------5-7-------|              |--7----7----7----7-------57---|
|----------5-7-----------| X2           |-----------------------57-----| X9
|-5----5-8---------------|              |----55---55---55---55---------|


|------------------------|        |--------------------||--------------||------------|
|--------------5-7-------|        |-------3----3/12----||------7-7/12--||------7-7---|
|----------5-7-----------| X2     |--------------------||-----7--------||----7----7--|
|-5----5-8---------------|        |-1------------------||--5-----------||--5---------|


|-------------------||---------------|
|------7-7/12-------||------7-7------|
|-----7-------------||----7----7-----|  (pausa-rest)
|--5----------------||--5---------5--|


|------------------------|              |------------------------------|
|--------------5-7-------|              |--7----7----7----7-------57---|
|----------5-7-----------| X3           |-----------------------57-----| 
|-5----5-8---------------|              |----55---55---55---55---------|


|------------------------|              
|--------------5-7\------|              
|----------5-7-----------| 
|-5----5-8---------------|              


| /  slide up
| \  slide down
| h  hammer-on
| p  pull-off
| ~  vibrato
| +  harmonic
| x  Mute note
===============================================================================
Добавлено: 04.11.2015
Другие материалы по этой песне:

Страница создана 11.04.2012
http://primanota.ru/goblin/profondo-rosso-chords.htm
Привет, Гость.
Предлагаем пройти революционный курс по гитаре.
Подарок от PrimaNota.Ru, забирай!