PrimaNota.ru - самый крупный в мире бесплатный архив песенных текстов, аккордов, табулатур и нот


Goblin Cock - Haint - таба, видео

Регистрация Запомнить меня
Войти через:  Facebook Google Twitter Vk Yandex Mail.ru

Goblin Cock - Haint - таба, видео

Печатать
Просмотров: 91
Уроки эстрадного вокала в Санкт-Петербурге
Goblin Cock - Haint
Album: Come With Me if You Want to Live
Tuning: Drop A (AEADF#B)


Intro/Verse

B ---------------------------------        
F#---------------------------------         
D ---------------------------------          
A --------------------------------- repeat
E ---3/5-5-5\-------3/5-5-5\-------
A -----------5--5-----------3--3---

B ----------------
F#----------------
D ----------------
A ---------------- Play this leading into the chorus
E ---0--3--0------
A -----------5-3--


Chorus
                                               Mute strings 
B ------------------------------------------------------------------
F#------------------------------------------------------------------
D ------------------------------------------------------------------
A ---14----14-----17-----19-----22----22-22-22-22-22-22---x-x-x-x---
E ---12----12-----15-----17-----20----20-20-20-20-20-20---x-x-x-x---
A ---12----12-----15-----17-----20----20-20-20-20-20-20---x-x-x-x---

(Repeat Verse and chorus)


Bridge

B -------------------------------------------------------------------------------------
F#-------------------------------------------------------------------------------------
D ---5/7-7-7\-------5/7-7-7\-------5/7-7-7\-----------------------11----5/7-7-7-7\-----
A -----------5--5-----------3--3-----------1-----1----/5--0---/12------------------5---
E --------------------------------------------3-----3----------------------------------
A -------------------------------------------------------------------------------------


Post-Chorus

     "Undead boys don't need protection...."
B ----------------------------------------------------------------------------------------------
F#----------------------------------------------------------------------------------------------
D ----------------------------------------------------------------------------------------------
A ---5---5---5--7---7/--10---10----5--7---7--5----5----8--7--5--4--0----------------------------
E --------------------------------------------------------------------------3/5-5-5-5--3--------
A ---5---5---5--7---7/--10---10----5--7---7--5----5----8--7--5--4--0----------------------5--0--
Добавлено: 10.06.2016
Другие материалы по этой песне:
  • Аккорды и текст

Страница создана 10.06.2016
http://primanota.ru/goblin-cock/haint-chords.htm
Привет, Гость.
Предлагаем пройти революционный курс по гитаре.
Подарок от PrimaNota.Ru, забирай!