PrimaNota.ru - самый крупный в мире бесплатный архив песенных текстов, аккордов, табулатур и нот


Gob - Underground - аккорды и текст, таба, видео

Регистрация Запомнить меня
Войти через:  Facebook Google Twitter Vk Yandex Mail.ru

Gob - Underground - аккорды и текст, таба, видео

Печатать
Просмотров: 206
Уроки эстрадного вокала в Санкт-Петербурге
Underground
Gob
Gob
Underground
Muertos Vivos
2007
Submitted by: paramore_fans@yahoo.com

Key: Eb

Tuning: Standard EADGBe

Chords used:
Cm -   x35543
Eb -   x68886
Ab -   466544
Eb/G - 365xxx
Bb -   x13331
Gm -   355333
Fm -   133111


Intro: Cm-- x6

Guitar 2:
e|---------------------3---4---1-|
B|-----3---4---3-----------------|
G|-------------------------------|
D|-------------------------------| x2
A|-3-3---3---3---3-3-3---3---3---|
E|-------------------------------|

Guitar 3:
e|-----------------------------|
B|-----------------------------|
G|-5-5-5-5-5-5-5-5-------------|
D|-5-5-5-5-5-5-5-5-------------| x4
A|-3-3-3-3-3-3-3-3-6-3-6-3-----|
E|-------------------------3-4-|


Verse 1:
          Cm
You won't realize I'm venomous
       Eb
You'll fall ill after hearing this
        Cm
I can't think straight
I'll mix you up
   Ab        Gm
No recipe no formula
           Cm
I'm like a chain-saw I'll spit and sing
    Eb
The words that cut you limb from limb
    Cm                  Ab        Bb  Eb/G
Cut out of a pattern to nothing familiar


Chorus:
Cm Ab     Cm     Eb     Fm  Cm
  I  went out to find a funeral
  Ab    Gm   Ab    Bb
No  one died I was waiting
Cm    Ab     Cm   Eb      Fm    Cm
  None  will rise dawn is beautiful
Cm  Ab   Cm     Ab     Bb
  Un--derground I will haunt you


Interlude: Cm--Cm--Cm--Cm-- x2

Guitar 2:
e|---------------------------------|
B|---------------------------------|
G|---------------------------------|
D|-----6-5-----5-3-----3-1-----0-1-| x4
A|-3-3-----3-3-----3-3-----3-3-----|
E|---------------------------------|

Guitar 3:
e|---------------------------------|
B|-----1---------------------------|
G|-------3-----3-1-----1-0-----0---|
D|-------------------------------1-| x2
A|-3-3-----3-3-----3-3-----3-3-----|
E|---------------------------------|


Verse 2:
          Cm
Well it's easy to be with this
     Eb
Just take some notes we'll take a piss
           Cm
On all the shit that sounds so typical
      Ab                   Gm
We're fully automatic and we will
            Cm
kill When amnesia sets in again
   Eb
Forget yourself remember
          Cm
this that We are so special
      Ab          Bb
We're nothing for real


Guitar 2: in "when amnesia"
e|----15----------16-14-------|
B|-13----16-16-13-------16-16-|
G|----------------------------|
D|----------------------------| x16
A|----------------------------|
E|----------------------------|


(Repeat chorus)


Guitar Solo 1: Very fast sweping!!!
Cm-Eb-Bb-Ab- x4


Interlude: Cm--Cm--Cm--Cm-- x2

Guitar 2:
e|---------------------------------|
B|---------------------------------|
G|---------------------------------|
D|-----6-5-----5-3-----3-1-----0-1-| x4
A|-3-3-----3-3-----3-3-----3-3-----|
E|---------------------------------|

Guitar 3:
e|---------------------------------|
B|-----1---------------------------|
G|-------3-----3-1-----1-0-----0---|
D|-------------------------------1-| x2
A|-3-3-----3-3-----3-3-----3-3-----|
E|---------------------------------|


Breakdown: Cm-Gm-Cm-Bb-- x4

Guitar Solo 2: Cm-Gm-Cm-Bb- x2, Cm-Gm-Cm-Fm-Cm-Gm-Cm-Eb(hold)


(Repeat Chorus twice)


Outro: Tom Thacker Screams!!!
Cm-Eb-Bb-Ab- x8, Cm(metallic riff) x8
Добавлено: 03.04.2012
Другие материалы по этой песне:

Страница создана 21.03.2012
http://primanota.ru/gob/underground-chords.htm
Привет, Гость.
Предлагаем пройти революционный курс по гитаре.
Подарок от PrimaNota.Ru, забирай!