PrimaNota.ru - самый крупный в мире бесплатный архив песенных текстов, аккордов, табулатур и нот


Gob - This Evil World - аккорды и текст, таба, видео

Регистрация Запомнить меня
Войти через:  Facebook Google Twitter Vk Yandex Mail.ru

Gob - This Evil World - аккорды и текст, таба, видео

Печатать
Просмотров: 173
This Evil World
Gob
Gob
This Evil World
Foot In Mouth Disease
2003
Submitted bY: paramore_fans@yahoo.com

Key: C# the nD

Tuning: Standard EADGBe

Chords used:
Bbm - x13321
F# -  244322
C# -  x46664
Ab -  466544
Ebm - x68876
Fm -  133111
F/A - x032xx
B -   x24442
Eb -  x68886
G -   320033
D -   xx0232
Em -  022000
Bm -  x24432
C -   x32010
E -   022100


Intro: Bbm--


Verse 1:
Bbm          Fm
   This evil world
Is punishing you from
    F#              C#
the things that you say
    F#         C#
You carry your weight
     Ab
But I  I don't know
      Vm
it's about you
All the time
Bbm             Fm
   It's easy to fall
Well you're going up and
        F#          C#
they're pulling you down
     F#            C#
They would get you down
          Ab
But you're  You're constantly
Fm
fighting anyhow
Bbm               Fm
   You're sold so quickly
You drop to your knees
      F#          C#
to be part of the scene
    F#          C#
You know what I mean and I'm
Ab              Fm
  I'm trying to keep you grounded


Chorus 1:
F#          C#
  Where are you?
              Ebm
Where are you now?
        Bbm    B        F#
You're slowly slipping away
          C#
Where are you?
              Ebm
What have you done?
        Bbm    B        F#
You're slowly slipping away
          C#
Where are you?
          Ebm
Where are you now?


Interlude: F/A--


Verse 2:
Bbm                  Fm
   One day you'll be found
Crawling around with
  F#            C#
a knife in your back
F#            C#
Someone keeps track and you
Ab              Fm
  You were only human
                Bbm
But now you're square
                 Fm
You're life's so empty
You throw a fit if you
F#               C#
don't get you're way
       F#
You're going
  C#
insane and I'm
Ab
  I'm right here to
Fm
watch it go down


Chorus 2:
F#          C#
  Where are you?
              Ebm
Where are you now?
        Bbm    B        F#
You're slowly slipping away
          C#
Where are you?
              Ebm
What have you done?
        Bbm    B        F#
You're slowly slipping away
          C#
Where are you?
          Ebm
Where are you now?
        Bbm    B        F#
You're slowly slipping away
          C#
Where are you?
              Ebm
What have you done?
        Bbm    B        F#  Ebm Bbm B
You're slowly slipping away a---way


Guitar Solo: F#--C#--Ebm--Bbm-B--|
F#--C#--Ebm--Bbm-B---------------|
F#--C#--Eb--Bbm-B----------------|
F#--C#--Ebm----------------------|Bbm-B(hold)

Guitar 2: Solo
      F#          C#        Ebm        Bbm         B
e|-----------|---------|-----------|----------|---------|
B|-----------|---------|-----------|----------|---------|
G|-------6-8-|-10--6-8-|-10--3---6-|-10-10-10-|-8--10-8-|
D|-4--4--x-x-|--x--x-x-|--x--x---x-|--x--x--x-|-x---x-x-|
A|-4--4--4-6-|--8--4-6-|--8--1---4-|--8--8--8-|-6---8-6-|
E|-2--2------|---------|-----------|----------|---------|

      F#           C#         Ebm        Bbm         B
e|-----------|------------|----------|----------|---------|
B|-----------|------------|----------|----------|---------|
G|-6--6--6-8-|-10--6--6-8-|-3--3-6-3-|-10-10-10-|-8--10-8-|
D|-x--x--x-x-|--x--x--x-x-|-x--x-x-x-|--x--x--x-|-x---x-x-|
A|-4--4--4-6-|--8--4--4-6-|-1--1-4-1-|--8--8--8-|-6---8-6-|
E|-----------|------------|----------|----------|---------|

       F#            C#            Eb           Bbm  
       B
e|-----------|----------------|-----------|-------------|-11-13-11-|
B|-----------|----------------|-----------|-------------|----------|
G|-6---13-15-|-18--15--13--15-|-12--13-12-|-10-10-10-10-|----------|
D|-x----x--x-|--x---x---x---x-|--x---x--x-|-------------|----------|
A|-4---11-13-|-16--13--11--13-|-10--11-10-|-------------|----------|
E|-----------|----------------|-----------|-------------|----------|

      F#        C#          Ebm      Bbm   B
e|-9------|------------|----------|------|---|
B|--------|------------|----------|------|---|
G|----6-8-|-10--6--6-8-|-3--3-6-3-|-3----|-4-|
D|----x-x-|--x--x--x-x-|-x--x-x-x-|-x--3-|-x-|
A|----4-6-|--8--4--4-6-|-1--1-4-1-|-1--x-|-2-|
E|--------|------------|----------|----1-|---|


Verse 3:
Bbm                Fm
   Don't act so surprised
You pay for your sins
        F#          C#
and you tested your fate
F#           C#
Now it's too late
  F#          Ebm
Objection overruled


Chorus 3: modulate from C# to D
F#          D
  Where are you?
              Em
Where are you now?
        Bm     C        G
You're slowly slipping away
          D
Where are you?
              Em
What have you done?
        Bm     C        G
You're slowly slipping away
          D
Where are you?
          Em
Where are you now?
        Bm     C        G
You're slowly slipping away
          D
Where are you?
              Em
What have you done?
        Bm     C
You're slowly slipping away


Outro:
G D E        Bm     C
     You're slowly slipping away
G D E        Bm     C
     You're slowly slipping away
G D E        Bm     C
     You're slowly slipping away
G D E Bm C Bm(hold)
Добавлено: 07.05.2012
Другие материалы по этой песне:
  • Аккорды и текст

Страница создана 27.02.2012
http://primanota.ru/gob/this-evil-world-chords.htm
Привет, Гость.
Предлагаем пройти революционный курс по гитаре.
Подарок от PrimaNota.Ru, забирай!