PrimaNota.ru - самый крупный в мире бесплатный архив песенных текстов, аккордов, табулатур и нот


Gob - The World According To Gob - аккорды и текст, видео

Регистрация Запомнить меня
Войти через:  Facebook Google Twitter Vk Yandex Mail.ru

Gob - The World According To Gob - аккорды и текст, видео

Печатать
Просмотров: 176
Уроки эстрадного вокала в Санкт-Петербурге
The World According To Gob
Gob
Gob
The World According To Gob
2000 Arista Records
Submitted by: paramore_fans@yahoo.com

Tuning: All Songs are in Standard EADGBe

Tracklist:
01. For The Moment
02. I Hear You Calling
03. No Regrets lyrics
04. Everyone Pushed Down
05. Pinto
06. Looking For California
07. Sleepyhead
08. Ex-Shuffle
09. That's The Way
10. Been So Long
11. 144
12. Can I Resist
13. Desktop Breaking
14. The Perfect Remedy

____________________________________________

1.) For The Moment

Key: G#

Tuning: Standard EADGBe

Chords used:
C# -  x46664
G# -  466544
Eb -  x68886
Fm -  133111
Bbm - x13321


Intro: G#-- x8

Guitar 1:
e|----9--8----|
B|-9----------|
G|----------8-|
D|------------| x8
A|------------|
E|------------|

Guitar 2:
e|--4-4-4----4-4--4-4-4-4-4-|
B|--------4-----------------|
G|--------------------------|
D|--------------------------| x4
A|--------------------------|
E|--------------------------|


Verse 1:
C#  G#        Eb
go away i'm afraid
                        Bbm   Fm
with you there could be no  escape
C# G#      Eb
i  have no faith i've seen
                 Bbm      Fm   C#
truth and reason down the drain


Refrain:
      Eb                  Fm
but i cling to you for survival
      Eb                   Fm
and i know that you are my bible


Chorus:
C#           Eb             Fm
get out i'm scared, for the moment
      Eb          Fm Eb C#
but i know you'll be there
          Eb            Fm
well i'm scared for the moment
      Eb          Fm Eb C#
but i know you'll be there


Verse 2:
C#     G#             Eb
by the way things you say
freak me out i go
    Bbm   Fm  C#
out of my head
  G#      Eb
i feel no shame
when i turn my back
    Bbm   Fm C#
and walk away


(Repeat Refrain)
(Repeat Chorus)


Interlude: Eb--Fm-- x2


(Repeat Chorus)


C#           Eb             Fm
get out i'm scared, for the moment
      Eb          Fm Eb C#
but i know you'll be there


Outro: Guitar Solo
Eb--Fm--Eb--Fm-Eb-C---| x2,
Eb--Fm-Eb-C-----------| x4

Guitar 2: Solo
            Eb                  Fm               Eb        Fm  Eb     C#
e|-----------------------|-1----------1-|-3--1------------|-4-|-3-|-1----1-|
B|-4--4--4--4--4--4--2h4-|----2--1--4---|----------1-2--2-|---|---|----4---|
G|-----------------------|--------------|-------3---------|---|---|--------|
D|-----------------------|--------------|-----------------|---|---|--------|
A|-----------------------|--------------|-----------------|---|---|--------|
E|-----------------------|--------------|-----------------|---|---|--------|

            Eb                  Fm               Eb        Fm  Eb  C#  Fm  Eb  C#
e|-----------------------|-1----------1-|-3--1------------|-4-|-3-|-1-|-4-|-3-|-1-|
B|-4--4--4--4--4--4--2h4-|----2--1--4---|----------1-2--2-|---|---|---|---|---|---|
G|-----------------------|--------------|-------1---------|---|---|---|---|---|---|
D|-----------------------|--------------|-----------------|---|---|---|---|---|---|
A|-----------------------|--------------|-----------------|---|---|---|---|---|---|
E|-----------------------|--------------|-----------------|---|---|---|---|---|---|

               Eb                Fm  Eb  C#
e|-4----3----1------------------|-4-|-3-|-1-|
B|------------------------------|---|---|---|
G|----3----3----3-3-3-3-3-3-3-3-|---|---|---|
D|------------------------------|---|---|---|
A|------------------------------|---|---|---|
E|------------------------------|---|---|---|

___________________________________

2.) I Hear You Calling

Key: B

Tuning: Standard EADGBe

Chords used:
B -   x24442
C#m - x46654
G#m - 466444
F# -  244322
E -   022100


Intro: B--C#m-G#m--E--G#m--E--G#m--E--F#-

Guitar 2:
          B         C#m       G#m              E
E|----------------|-----|--------------|---------------|
B|----------------|-----|--------------|---------------|
G|----------------|-1---|--------------|---------------|
D|---1-4-1-4--4-1-|-----|-4--1-1---1---|-------------1-|
A|-2--------------|-----|--------4---4-|-2-2---2-2-----|
E|----------------|-----|--------------|-----4-----4---|

    G#m           E           G#m           E             F#
e|--------|----------------|--------|----------------|----------|
B|--------|----------------|--------|----------------|----------|
G|--------|----------------|--------|----------------|----------|
D|----1---|--------------1-|----1---|--------------1-|----------|
A|--4---4-|--2-2---2-2-----|--4---4-|--2-2---2-2-----|--4--4--2-|
E|--------|------4-----4---|--------|------4-----4---|----------|


Verse 1:
B
  i've seen you now about
    C#m    G#m
the fourth time baby
        E
but you know that
                    G#m
i've got nothing to say
       E
its so charming to look on
     G#m           E
your face but your eyes
                     F#
inviting something i just
            B
can't do now i've been around
           C#m  G#m
about your hood i'm looking
        E
for you just to shine some light
      G#m            E
on my day feels like ages
                         G#m
since i've been out your way
     E
i've been caught up with
           F#
handful of new sensation


Chorus 1:
E          F#      C#m
i hear you calling calling for
              G#m
me out in the night but it's
E      F#      C#m      G#m--
all bad  and i know that


Verse 2:
B
  I've seen you now
          C#m   G#m
about the Fifth time baby
        E
But you know that
                    G#m
I've got nothing to say
       E
Its so charming to
             G#m
look on your face
         E
But your eyes inviting
            F#
something i just can't do now
B
  i've been around
           C#m  G#m
about your hood i'm looking
        E
for you just to shine some light
      G#m            E
on my day feels like ages
                         G#m
since i've been out your way
     E
i've been caught up with
           F#
handful of new sensation


Chorus 2:
E          F#      C#m
i hear you calling calling for
              G#m
me out in the night but it's
E      F#      C#m      E F#
all bad  and i know that


Guitar Solo:
B--C#m-G#m--E--G#m--E--G#m--E--F#- x2

Guitar 2: Solo
          B        C#m     G#m             E
E|----------------|---|------------|---------------|
B|----------------|---|------------|---------------|
G|----------------|-1-|------------|---------------|
D|---1-4-1-4--4-1-|---|-4--1-1---1-|---------------|
A|-2--------------|---|--------4---|-4-2-2---2-2---|
E|----------------|---|------------|-------4-----4-|

    G#m            E            G#m          E              F#
e|--------|-----------------|--------|----------------|------------|
B|--------|-----------------|--------|----------------|------------|
G|--------|-----------------|--------|----------------|------------|
D|-1----1-|-----------------|-1----1-|----------------|-1----------|
A|----4---|-4--2-2----2-2---|----4---|-4--2-2---2-2---|----4--4--2-|
E|--------|---------4-----4-|--------|--------4-----4-|------------|

          B          C#m        G#m            E
E|----------------|-------|------------|---------------|
B|----------------|-------|------------|---------------|
G|----------------|-1bend-|------------|---------------|
D|---1-4-1-4--4-1-|-------|-4--1-1---1-|---------------|
A|-2--------------|-------|--------4---|-4-2-2---2-2---|
E|----------------|-------|------------|-------4-----4-|

    G#m            E            G#m          E              F#
e|--------|-----------------|--------|----------------|------------|
B|--------|-----------------|--------|----------------|------------|
G|--------|-----------------|--------|----------------|------------|
D|-1----1-|-----------------|-1----1-|----------------|-1----------|
A|----4---|-4--2-2----2-2---|----4---|-4--2-2---2-2---|----4--4--2-|
E|--------|---------4-----4-|--------|--------4-----4-|------------|


Chorus 3:
E          F#      C#m
i hear you calling calling for
              G#m
me out in the night but it's
E      F#      C#m      G#m-F#-
all bad  and i know that
(Repeat x5)

____________________________________

3.) No Regrets

Key: A

Tuning: Standard EADGBe

Chords used:
A -   x02220
D -   xx0232
F#m - 244222
G -   320033
E -   022100


Intro: Drumbeats

Bass: A-- x8

Guitar: A-- x4
e|-0--0--0--0--0-|
B|-2--2--3--2--0-|
G|-2--2--2--2--2-|
D|-2--2--2--2--2-|
A|-0--0--0--0--0-|
E|---------------|


Verse 1:
A(hold)
all the things that i've regretted
and all the place i was
E
headed with you
i wanna pursue
A
even though you're not
A go-getter
you could show me
                          E
we could do better you'll see
                 F#m
take a chance on me


Chorus 1:
      A      D
but i know i know
     F#m
this feeling that
  E              A
i have inside of me
   D     F#m
in me my belly's
        E
burning and it's turning
A         D
don't you see
    F#m       E        A    E
i'm upset and yet no regrets


Verse 2:
A
if there ever was a time
when i could go back and
make it all fine with
E
you i wanna pursue
A
all the blood and tears i've
sweated all the work we
                       E
can't forget it you'll see
                 F#m
take a chance on me


(Repeat Chorus 1)

Guitar Solo: A--E--A---|E-F#m,
A----------------------|D-F#m-E- x2, A-D-F#m-G-A, F#m-G-A

Guitar 2: Solo
                 A                                E
e|-------------------------0-------|------------4-4-4-4-2-2-2-2-|
B|-2-2-2-2-3-2-0---2-2-2-3---3-2---|-0--------------------------|
G|---------------2---------------2-|-----1----------------------|
D|---------------------------------|--------2-------------------|
A|---------------------------------|----------------------------|
E|---------------------------------|----------------------------|

                 A                         E                 F#m
e|-------------------------0-------|--------------|----|-----------------|
B|-2-2-2-2-3-2-0---2-2-2-3---3-2---|-0----------0-|-2--|-2-3-2-0-2-0-----|
G|---------------2---------------2-|-----2-2-2----|----|-------------2-1-|
D|---------------------------------|--------------|----|-----------------|
A|---------------------------------|--------------|----|-----very-fast---|
E|---------------------------------|--------------|----|-----------------|

    A       D       F#m        E
e|----0-|-------|---------|---------|
B|------|-3---3-|-2--3--2-|-0--2--0-|
G|-2----|-------|---------|---------|
D|------|-------|---------|---------|
A|------|-------|---------|---------|
E|------|-------|---------|---------|

    A       D       F#m        E       A      D
e|----0-|-------|---------|-2--0----|----0-|------|
B|------|-3---3-|-2--3--2-|-------3-|------|-3--3-|
G|-2----|-------|---------|---------|-2----|------|
D|------|-------|---------|---------|------|------|
A|------|-------|---------|---------|------|------|
E|------|-------|---------|---------|------|------|

      F#m            G       A
e|------------|------------|----|
B|------------|------------|----|
G|-11--11--11-|-12--12--12-|-14-|
D|--x---x---x-|--x---x---x-|--x-| x2
A|--9---9---9-|-10--10--10-|-12-|
E|------------|------------|----|


Verse 3:
A
all the things that
i've regretted
and all the places
                  E
i was headed with you
A
no more standing
around i've said it
get off your ass and we'll
                 E
go get it you'll see
                 F#m
take a chance on me


Chorus 2:
      A      D
but i know i know
     F#m
this feeling that
  E              A
i have inside of me
   D     F#m
in me my belly's
        E
burning and it's turning
A         D
don't you see
    F#m       E         A   D
i'm upset and yet no regrets
    F#m       E         A   D
i'm upset and yet no regrets
    F#m       E         A   E A(hold)
i'm upset and yet no regrets

________________________________________

4.) Everyone's Pushed Down

Key: F#, B

Tuning: Standard EADGBe

Chords used:
Ebm - x68876
C# -  x46664
B -   x24442
G#m - 466444
E -   022100
F# -  244322


Intro: C#, Ebm--B-F#--C#-- x2

Guitar 2:
e|---------1h2p1----------2h4p2-|
B|------------------------------|
G|-3--1-----------3-1---1-------|
D|------4-------------4---------|
A|------------------------------|
E|------------------------------|


Chorus 1:
          Ebm
you gotta burn that
B        F#
building down
C#      Ebm
i would love to
see that world
     B        F#  C#
come crashing down
          Ebm
you gotta burn that
B        F#
building down
C#      Ebm
i would love to
see that world
     B        F#  B
come crashing down


Verse 1:
C#
  did you know your actions
       B   F#  C#
affect all the life

Guitar 2: in "affect all the life"
e|-------2-1-----|
B|-2-4-2-----4-2-|
G|---------------|
D|---------------|
A|---------------|
E|---------------|

C#
  could you pay attention
      B    F#  C#
to it just one time
G#m
   when your thinking up
     E           B
your mind do you complain
G#m
   everyone pushed down in
     E             B
your heart in your soul say


Refrain:
G#m
   babababa
E
   babababa
B
   badabababababa
(Repeat x4)


Breakdown: C#


(Repeat Chorus)


Verse 2:
C#
  then the people under
           B   F#   C#
could come crawling out

Guitar 2: in "crawling out"
e|-------2-1-----|
B|-2-4-2-----4-2-|
G|---------------|
D|---------------|
A|---------------|
E|---------------|

C#
  see the sun for the first time
         B    F#     C#
it would burn them without a doubt
G#m
   but that burn would feel so
E           B
good and so warm it would
G#m
   let them finally feel
E           B
life and be born again
G#m
   everyone push down in
E             B
heart in your soul say

(Repeat Refrain)
(Repeat Chorus 1)
(Repeat Breakdown)


Guitar Solo: C#--B-F#-C#- x4

Guitar 2: Solo
e|-------2-1-----|
B|-2-4-2-----4-2-|
G|---------------|
D|---------------| x4
A|---------------|
E|---------------|


Chorus 2:
          Ebm
you gotta burn that
B        F#
building down
C#      Ebm
i would love to
see that world
     B        F#  C#
come crashing down
          Ebm
you gotta burn that
B        F#
building down
C#      Ebm
i would love to
                   C#
see that world come
Ebm
love to see that
          C# Ebm
world come   down down!!!!


Guitar 2: Chorus 2
E|-9-9-9-9-7-7-7-7-6-6-6-6-7-7-7-7-|
B|-7-7-7-7-7-7-7-7-7-7-7-7-7-7-7-7-|
G|-6-6-6-6-6-6-6-6-6-6-6-6-6-6-6-6-|
D|---------------------------------|
A|---------------------------------|
E|---------------------------------|


(Repeat Refrain)


Outro: B-F#-C#--B-F#-Ebm(hold)

__________________________________

5.) Pinto

Key: G#

Tuning: Standard EADGBe

Chords used:
G# -   466544
Eb -   x68886
Fm -   133111
C# -   x46664
Bbm -  x13321


Verse 1:
            G#
you got the first mile
        Eb
made it through
                    Fm  Eb Fm
but you're falling apart
           C#
forget the distance
            Fm
that you've moved
since you were
        Bbm
at the start
G# Bbm           G#
i  bet you would do
            Eb
much better doing
what you feel
       Fm   Eb Fm
in you parts
            C#
because you give
             G#
and take and give
                Eb
all that you've got
and it starts to break you


Chorus 1:
G#  Eb
down
  Bbm          C#
until you have broken
G#  Eb
down
  Bbm          C#
until you have broken


Guitar Solo: G#-Eb-Bbm-C#-

Guitar 2: Solo
         G#                 Eb               Bbm                C#          G#(Verse 2)
e|-8-8-8-8-9-9-9-9-|-8-8-8-8-9-9-9-9-|-8---------8----|--------------------|-----|
B|-9-9-9-9-9-9-9-9-|-9-9-9-9-9-9-9-9-|----11--11---11-|-9----9--11h13p11---|-9---|
G|-8-8-8-8-8-8-8-8-|-8-8-8-8-8-8-8-8-|----------------|----8-------------8-|-----|
D|-----------------|-----------------|----------------|--------------------|-----|
A|-----------------|-----------------|----------------|--------------------|-----|
E|-----------------|-----------------|----------------|--------------------|-----|


Verse 2:
           G#        Eb
i've got a bucket of water
                     Fm  Eb Fm
in case you catch on fire
           C#
i'm at the pit stop
            Fm
waiting for you
                  Bbm
if you blowout or tire
     G# Bbm
i've gotta tell you
G#                 Eb
  you fight like a bull
                   Fm  Eb Fm
and that i truly admire
         C#
that you give and
         G#
take and give
                Eb
all that you've got
and it starts to break you


Chorus 2:
G#  Eb
down
  Bbm          C#
until you have broken
G#  Eb
down
  Bbm          C#
until you have broken
G#  Eb C# Bbm
down!
G#  Eb C# Bbm
down!


Bridge: Bass Solo
Fm
  no flag in sight yet
G#                      Eb
  but you've gotta keep moving
Fm
  if your wheels forsake you
G#      Eb
  it'll surely break you
Fm
  in time you'll be sold
G#              Eb
  and you might feel cold
Fm
  but don't forget that
G#         Eb
  it's the path you've chosen


Guitar Solo: Fm--G#-Eb- x3

Guitar 2: Solo
e|---------8-8-----------------8-8---------------|
B|--------------11-11--9-9--9-------11-11--9-9-8-|
G|-10-10-----------------------------------------|
D|-----------------------------------------------|
A|-----------------------------------------------|
E|-----------------------------------------------|

e|------8-8-----------------8-8---------------|
B|-9-9-------11-11--9-9--9-------11-11--9-9-8-|
G|--------------------------------------------|
D|--------------------------------------------|
A|--------------------------------------------|
E|--------------------------------------------|

e|---------8-8--------------------8-8---------------|
B|--------------11-11--9-9--8--9-------11-11--9-9-8-|
G|-10-10--------------------------------------------|
D|--------------------------------------------------|
A|--------------------------------------------------|
E|--------------------------------------------------|


Breakdown: C#--Eb--

Guitar 2: Breakdown
e|-4-4-4-4-4-3-1-3-4-4-4-4-4-3-1-3-4--3--4-|
B|-----------------------------------------|
G|-----------------------------------------|
D|-----------------------------------------|
A|-----------------------------------------|
E|-----------------------------------------|


Chorus 2:
G#  Eb
down
  Bbm          C#
until you have broken
G#  Eb
down
  Bbm          C#
until you have broken
G#  Eb C# Bbm
down!
G#  Eb Fm Fm Fm(hold)
down!

_____________________________________________

6.) Looking For California

Key: G#

Tuning: Standard EADGBe

Chords used:
G# -   466544
Eb/G - 365xxx
Fm -   133111
Eb -   x68886
C# -   x46664
C/E -  032xxx
Cm -   x35543


Intro: Drumbeats


Verse 1:
G#     Eb/G          Fm
let me take a little break
    C#         G#      Eb
i'm having the hardest time
   G#      Eb/G
convincing you that
                 Fm
there are better ways
   C#         G#      Eb  C/E
to say what's on your mind
Fm       Cm
insult intimidate let's
Fm             Cm
try to be more diplomatic
G#     Eb/G          Fm
we all have opinions here
C#     G#       Eb
we all have the right
       G#        Eb/G
if you make an effort
         Fm
to understand
C#        G#      Eb   C/E
you don't have to fight
Fm            Cm
put down your weaponry you
Fm        C#
get so fucking defensive


Chorus 1:
G#     Eb
no man we don't hate you
Fm     Eb       C#
we can shake it off
G#            Eb
we need to go find
a place where
Fm     Eb    C#
we can carry on
G#
everyone hears
         Eb
but it's no one's business
  Fm          Eb    C#
i think we've said enough
G#              Eb
we just need to find a place
      Fm     Eb    C#
where we can carry on


Verse 2:
   G#     Eb/G
if we can wait for better
Fm      C#   G#     Eb
days to open up our eyes
     G#     Eb/G
then we can say the
          Fm
things we feel
    C#      G#    Eb
and make no compromise
G#     Eb/G          Fm
we all have opinions here
C#     G#       Eb
we all have the right
G#        Eb/G
we're not perfect
        Fm
we make mistakes
C#      G#      Eb C/E
we just have to try
Fm
put down your
Cm           Fm    C#(hold)
weaponry you get so


Chorus 2: Beat slowered a bit
G#     Eb
no man we don't hate you
Fm     Eb       C#
we can shake it off
G#            Eb
we need to go find
a place where
Fm     Eb    C#
we can carry on
G#
everyone hears
         Eb
but it's no one's business
  Fm          Eb    C#
i think we've said enough
G#              Eb
we just need to find a place
      Fm     Eb    C#
where we can carry on
(Repeat)


Outro:
Guitar Solo: Beat slowered
C#-G#-Eb-Fm- x8

Guitar 2: Solo
e|---3---4-3----3---4-3-1----3---4-3----3---1-3-|
B|-4---4------4---4--------4---4------4---4-----|
G|----------------------------------------------| x4
D|----------------------------------------------|
A|----------------------------------------------|

Guitar 3:
e|-9--8-----9-8------|
B|--------9-----8--9-|
G|-------------------|
D|-------------------| x4
A|-------------------|
E|-------------------|

_______________________________________

7.) Sleepyhead

Key: F#, B

Tuning: Standard EADGBe

Chords used:
B -     x24442
G#m -   466444
Ebm -   x68876
F# -    244322
C# -    x46664
E -     022100
F#/Bb - x143xx
Bbm -   x13321


Intro:

Guitar 1:
      B        G#m       Ebm        F#
e|---------|---------|---------|---------|
B|---------|---------|---------|---------|
G|---4-3---|---4-3---|---4-3---|---4-3---|
D|-------4-|-------4-|-1-----4-|-------4-| x3
A|-2-------|---------|---------|---------|
E|---------|-4-------|---------|-2-------|

Guitar 2:
e|-14----14----14----|-14----14----18-|
B|----14----14----14-|----14----14----|
G|-------------------|----------------|
D|-------------------|----------------|
A|-------------------|----------------|
E|-------------------|----------------|
          x3

e|-14----14----14----|-18-|
B|----14----14----14-|----|
G|-------------------|----|
D|-------------------|----|
A|-------------------|----|
E|-------------------|----|
          x3

Verse 1:
B         G#m
  Painted murder
       Ebm
on the wall
          F#
footsteps coming
C#       B
down the hall
       G#m
to the window
            Ebm
through the blinds
    C#      F#
runaway but i still
B          G#m
  hear the footsteps
Ebm        F#      C#
   closing in again
B               G#m
  This time the plane
         Ebm
is going down
       C#       F#
double over get ready


Interlude:

Guitar 1:
      B        G#m       Ebm        F#
e|---------|---------|---------|---------|
B|---------|---------|---------|---------|
G|---4-3---|---4-3---|---4-3---|---4-3---|
D|-------4-|-------4-|-1-----4-|-------4-|
A|-2-------|---------|---------|---------|
E|---------|-4-------|---------|-2-------|

Guitar 2:
e|-14----14----14----|-18-|
B|----14----14----14-|----|
G|-------------------|----|
D|-------------------|----|
A|-------------------|----|
E|-------------------|----|
          x3

Verse 2:
B       G#m           Ebm
  I'm allergic to the light
        F#
and the darkness
C#        B
brings me fright
through the
G#m
peep-hole i saw
Ebm         C#       B
   suicidal neighbors they
B           G#m
   turn the doorknob
Ebm     F#      C#
   came in again
G#m           Ebm
   someone's sleeping
      Bbm
in my bed
         B
close my eyes and


Chorus 1:
        F#
i had a dream
         B
inside a dream
          C#   G#m
i woke so many times
  Ebm               B
i dont know if i'm awake
(Repeat)


Guitar 2:
         F#                B
e|-2-2-2-1-1-1-2-1-|-2-2-2-1-1-1-2-1-|
B|-----------------|-----------------|
G|-----------------|-----------------|
D|-----------------|-----------------|
A|-----------------|-----------------|
E|-----------------|-----------------|
         x2                x2

         C#                G#m         Ebm  B
e|-2-2-2-1-1-1-----|-4-4-4-2-2-2-1-1-|----|---|
B|-------------4-4-|-----------------|----|---|
G|-----------------|-----------------|-8--|-4-|
D|-----------------|-----------------|-8--|-4-|
A|-----------------|-----------------|-6--|-2-|
E|-----------------|-----------------|----|---|

         F#                B
e|-2-2-2-1-1-1-2-1-|-2-2-2-1-1-1-2-1-|
B|-----------------|-----------------|
G|-----------------|-----------------|
D|-----------------|-----------------|
A|-----------------|-----------------|
E|-----------------|-----------------|
         x2                x2

         C#                G#m         Ebm  B
e|-2-2-2-1-1-1-----|-4-4-4-6-6-6-2-2-|----|---|
B|-------------4-4-|-----------------|----|---|
G|-----------------|-----------------|-8--|-4-|
D|-----------------|-----------------|-8--|-4-|
A|-----------------|-----------------|-6--|-2-|
E|-----------------|-----------------|----|---|


Interlude:

Guitar 1: B-G#m-F#/Bb-B-B-G#m-Ebm-E-

Guitar 2:
e|-----------------|---|
B|---0-2---2-0-2-0-|---|
G|-------1---------|-4-|
D|-4---------------|-4-|
A|-----------------|-2-|
E|-----------------|---|
         x3

e|-----------------|---|
B|---0-2---2-0-2-0-|---|
G|-------1---------|-9-|
D|-4---------------|-9-|
A|-----------------|-7-|
E|-----------------|---|
         x3

Verse 3:
B         G#m
  jam the forceps
      Ebm
in my eye
          F#
keep them open
C#          B
through the night
       G#m
listen to a
       Ebm
grainy voice
           C#
the night speaks
 F#
(It Says)
B            G#m
  paint your morning
Ebm             F#        C#
   its great to meet again
B       G#m           Ebm(hold) C# F#-
  outta bed you sleepyhead


(Repeat Chorus 1)


Chorus 2:
        B    F#
i had a dream
         B
inside a dream
          C#   G#m
i woke so many times
  Ebm               B
i dont know if i'm awake
(Repeat)


Outro:

Guitar 1: B-G#m-Ebm-E- x4

Guitar 2:
e|-----------------|---|
B|---0-2---2-0-2-0-|---|
G|-------1---------|-9-|
D|-4---------------|-9-|
A|-----------------|-7-|
E|-----------------|---|
         x3

___________________________________

8.) Ex-Shuffle

Key: Bb

Tuning: Standard EADGBe

Chords used:
F -    133211
Cm -   x35543
Eb -   x68886
Bb -   x13331
G# -   466544
Gm -   355333
Bb/D - x587xx


Intro: F-Cm-Eb-Bb- x4
Bb--G#-Bb--G#-Bb--Gm--Eb--


Verse 1:
G# Bb
     Things coming down
G#   Bb
it's all that I see
G# Bb
     I turn and look but
Gm       Eb
it don't bother me
Bb
  is there any way
G# Bb
   i could get by
G# Bb
     what reason
Gm           Eb
i dont understand why
Bb
  i always say
G# Bb
   you know i know
G# Bb
     we're always
getting nowhere nowhere
Bb        G#   Bb
  i guess i'll never
          G#
ever learn
Bb
  never learn
         Gm
cause i'm never
      Eb
gonna grow up


Chorus 1:
F         Cm
  all the time she
Eb         Bb
thinks i'm lying
F          Cm
  hurts so bad inside
  Eb        Bb
i feel like dying
F          Cm
  i'm not around
    Eb             Bb
she tells me she's crying
F      Cm
  even though even though
i know what's right


Interlude: Bb--G#-Bb--G#-Bb--Gm--Eb--


Verse 2:
Bb
  another day
G# Bb
  another lecture
G# Bb
   somehow i think
Gm        Eb
this will re-occur
Bb
  it's something now
G# Bb
     that i foresee
G# Bb
     this chemistry
Gm       Eb
is a bad recipe
Bb
  i always say
G# Bb
   you know i know
G# Bb
     we're always
getting nowhere nowhere
Bb        G#   Bb
  i guess i'll never
          G#
ever learn
Bb
  never learn
         Gm
cause i'm never
      Eb
gonna grow up


Chorus 2:
F         Cm
  all the time she
Eb         Bb
thinks i'm lying
F          Cm
  hurts so bad inside
  Eb        Bb
i feel like dying
F          Cm
  i'm not around
    Eb             Bb
she tells me she's crying
F      Cm
  even though even though


Bass Solo: F-Cm-Eb-Bb- x8

Guitar Solo:
e|-------------------|
B|-1--3-4--3-1--3-4--|
G|-------------------|
D|-------------------| x2
A|-------------------|
E|-------------------|


Breakdown: Eb---, Eb-Bb/D-Cm-


(Repeat Chorus 2 twice)


Outro: Eb-Bb/D-Cm-

_________________________________

9.) That's The Way

Key: Eb, Bb

Tuning: Standard EADGBe

Chords used:
G# - 466544
Eb - x68886
F -  133211
Bb - x13331
Gm - 355533
C# - x46664


Intro: G#--Eb--G#--Eb-F-

Guitar 2:
e|-----------------3-----4-----3-1-|
B|-4-3---4-3---4-----4-------4-----|
G|-----3-----3---3-----3---3-------|
D|---------------------------------|
A|---------------------------------|
E|---------------------------------|
                 x3

e|-----------------|-------------------------|
B|-4-3---4-3---4---|-------------------------|
G|-----3-----3---3-|-10-10-10-10-10-10-10-10-|
D|-----------------|-10-10-10-10-10-10-10-10-|
A|-----------------|--8--8--8--8--8--8--8--8-|
E|-----------------|-------------------------|


Verse 1:
Bb
  Don't need no anyone
Eb
  Don't need anybody
Gm
  Talk to me about
F
handling relationships
Bb
  It seems like everyone
Eb
  It seems like everybody
Gm
  I think I really doubt
    F
I'd use their advice and tips


Chorus 1:
G#
That's the way
I was falling
    Eb
And that's the way
it's supposed to be
G#
That's the way
I was falling
Eb            F
That's the way


Verse 2:
Bb
  Although it's just begun
Eb
  I've heard enough already
Gm
  I feel I'm all worn out
F
Only just begun this trip
Bb
  This phenomenon which
Eb
  happens naturally
Gm
  Something you hear about
F
more than just companionship


Chorus 2:
G#
That's the way
I was falling
    Eb
And that's the way
it's supposed to be
G#
That's the way
I was falling
Eb
That's the way
it's supposed to be


Bridge:
C#           G#
  I remember when it
                Eb
was breaking my heart
C#            G#
  Even though then I
             Eb
was falling apart
C#               G# Eb
  And even though


Guitar 2: Bridge
         C#                 G#                      Eb
e|-3-3-1-1-3-3-1-1-|-4-4-1-1-4-4-1-1-|-3---1-3---1-3--3---1-3---1-3-|
B|-----------------|-----------------|---4-----4--------4-----4-----|
G|-----------------|-----------------|------------------------------|
D|-----------------|-----------------|------------------------------| x2
A|-----------------|-----------------|------------------------------|
E|-----------------|-----------------|------------------------------|

    C#     G#    Eb
e|-3--1-|-4--1-|---|
B|------|------|---|
G|------|------|-8-|
D|------|------|-8-|
A|------|------|-6-|
E|------|------|---|


Guitar Solo: Eb-G#- x3, Eb-F--

Guitar 2: Solo
        Eb               G#              Eb              G#
e|-3---1-3---1-3-|-4---1-3---1-3-|-3---1-3----1-3-|-4--4-6-4-3---|
B|---4-----4-----|---4-----4-----|---4------4-----|------------4-|
G|---------------|---------------|----------------|--------------|
D|---------------|---------------|----------------|--------------|
A|---------------|---------------|----------------|--------------|
E|---------------|---------------|----------------|--------------|

        Eb               G#              Eb             F
e|-3---1-3---1-3-|-4---1-3---1-3-|-3---1-3----1-3-|-4--3--1--3-|
B|---4-----4-----|---4-----4-----|---4------4-----|------------|
G|---------------|---------------|----------------|------------|
D|---------------|---------------|----------------|------------|
A|---------------|---------------|----------------|------------|
E|---------------|---------------|----------------|------------|


(Repeat Verse 1)


Chorus 3:
G#
That's the way
I was falling
    Eb
And that's the way
it's supposed to be
G#
That's the way
I was falling
Eb
That's the way
it's supposed to be
G#
That's the way
I was falling
    Eb
And that's the way
it's supposed to be
G#
That's the way
I was falling
Eb            C# G# Eb(hold)
That's the way

________________________________________

10.) Been So Long

Key: G#

Tuning: Standard EADGBe

Chords used:
G# -  466544
Bbm - x13321
Fm -  133311
C# -  x46664
F# -  244322


Intro: G#-Bbm- x4

Guitar 2:
         G#                       Bbm
e|-8-8-8-8-9-9-9-9-|-8-8-8-8-9-9-9-9-8-8-8-8-6-6-6-6-|
B|-9-9-9-9-9-9-9-9-|-9-9-9-9-9-9-9-9-9-9-9-9-9-9-9-9-|
G|-8-8-8-8-8-8-8-8-|-8-8-8-8-8-8-8-8-8-8-8-8-8-8-8-8-|
D|-----------------|---------------------------------| x2
A|-----------------|---------------------------------|
E|-----------------|---------------------------------|
         x2

Guitar 3:
             G#                        Bbm
e|-------------------------|-------------8------8-----|
B|-9-----9-----11-9-8-9----|-9-----9-------11-9----11-|
G|----8-----8------------8-|----8-----8---------------|
D|-------------------------|--------------------------|
A|-------------------------|--------------------------|
E|-------------------------|--------------------------|


Verse 1:
G#            Bbm
How I long to see your eyes
          G#
Your eyes fill me up
  Bbm
I breathe them inside
G#
  I have your image
       Bbm
deep inside of me
G#
  I hold your picture
F#     Bbm
It's a part of me


Guitar 2: at "i breathe them inside"
e|-9---
B|---9-
G|-----
D|-----
A|-----
E|-----


Chorus 1:
       G#      Bbm
It has been so long
       Fm      C#
It has been so long
       G#      Bbm
It has been so long
       Fm      C#
It has been so long


Verse 2:
G#
Without you there
   Bbm
is no sun just sky
G#
I'm a wound that's
Bbm
bone deep bled dry
G#
I have your image
       Bbm
deep inside of me
G#
  I hold your picture
F#     Bbm
It's a part of me


Chorus 2:
       G#      Bbm
It has been so long
       Fm      C#
It has been so long
       G#      Bbm
It has been so long
       Fm      C#
It has been so long
(Repeat)


Guitar Solo: C#--Eb-- x2

Guitar 2: Solo
             C#                    Eb
e|-------------------------|---------------|
B|-------------------------|---------------|
G|-13-13-13-13-13-12-10-12-|-10--8--13--15-|
D|--x--x--x--x--x--x--x--x-|--x--x---x--x--|
A|-11-11-11-11-11-10--8-10-|--8--6--11--13-|
E|-------------------------|---------------|
             x2

                 C#                      Eb !=artificial harmonics
e|-8h9p8-------8h9p8-------8h9p8---|-----11--16!-|
B|-------11-9--------11-9--------9-|-11----------|
G|---------------------------------|-------------|
D|---------------------------------|-------------|
A|---------------------------------|-------------|
E|---------------------------------|-------------|


Interlude: It has
G#-Bbm-Fm-C#- x8


Chorus 3: Bass Solo
       G#      Bbm
It has been so long
       Fm      C#
It has been so long
       G#      Bbm
It has been so long
       Fm      C#
It has been so long
(Repeat)


Bass: Chorus 3
    G#      G#         C#        Bbm         C#
G|------|----13-|----13----13-|----13-|----13----13-|
D|------|-------|-11----11----|-------|-11----11----|
A|-11---|-11----|-------------|-13----|-------------|
E|------|-------|-------------|-------|-------------|

Complex Bass Riff:
G|----13----13-12-10-------------------|
D|----------------------13-11-10-------|
A|-11----11----------11----------13-11-|
E|-------------------------------------|

G|---------------------------|
D|------------------------11-|
A|-11-10-13-11-10-11-11-8----|
E|---------------------------|


(Repeat Intro)
(Repeat Chorus 2 twice)

____________________________________

11.) 144


Key: G#

Tuning: Standard EADGBe

Chords used:
Fm -   133111
C# -   x46664
Eb -   x46664
G# -   466544
Eb/G - 365xxx
Bbm -  x13321


Intro: Fm--- x4


Verse 1:
Fm                   C#
  i want to know the place
      G#       Eb
where you come from
Fm
  i like to see your
C#        G#     C#
face when i wake up
Fm
  i offer me just
        C#
for yourself
wrapped up for you
           G#
and no one else
           Eb
and no one else
Fm
  could be appreciative
C#
  be as appreciative
G#   Eb
  of your charm


Guitar 2: at "i offer me"
e|---------------------------------|
B|---------------------------------|
G|-5-5-5-5-5-5-5-5-1-1-1-1-3-3-3-3-|
D|--all-palm-mute------------------| x4
A|---------------------------------|
E|---------------------------------|


Chorus 1:
Eb       C#       G#
when you walk you take
    Fm
you take your time
Eb         C#       G#
  take the tiniest steps
         Fm
when i'm at your
    Eb       Eb/G
side  if you feel
       Fm
you're left behind
          Eb           C#
i'll slow down to your pace


Verse 2:
Fm                    C#
  and we'll be like a tree
    G#         Eb
and we'll grow on
Fm                        C#
  and if the world should end
     G#        Eb
with fires and bombs
Fm
  i'd like to be there
        C#
holding hands
with you i'll view the
           G#
end of the lands
    Eb
and no one else
Fm
  could steal a piece
        C#
like you  could steal
                G#
a piece that big
      Eb
of my heart


Chorus 2:
Eb       C#       G#
when you walk you take
    Fm
you take your time
Eb         C#       G#
  take the tiniest steps
         Fm
when i'm at your
    Eb       Eb/G
side  if you feel
       Fm
you're left behind
          Eb--
i'll slow down
        C#--
to your pace


Interlude: Fm--Eb--C#-Eb-Fm--Eb-Bbm-C#--C#(hold)


Chorus 3:
Eb       C#       G#
when you walk you take
    Fm
you take your time
Eb         C#       G#
  take the tiniest steps
         Fm
when i'm at your
    Eb       Eb/G
side  if you feel
       Fm
you're left behind
          Eb
i'll slow down
       C#
if you feel
       Fm
you're left behind
          Eb
i'll slow down
       C#
if you feel
       Fm
you're left behind
          Eb
i'll slow down
        C#
to your pace yeah


Outro:
Fm                  C#
  i want to be with you
    G#           Eb Bbm Fm Eb Bbm Fm
and we will be toge-ther
Fm                  C#
  i want to be with you
    G#              Eb/G
and we will life forever
Fm                  C#
  i want to be with you
    G#           Eb Bbm Fm Eb Bbm Fm
and we will be toge-ther
Fm                  C#
  i want to be with you
    G#              Eb Bbm Fm(hold)
and we will life forever

____________________________________________

12.) Can I Resist

Key: G#

Tuning: Standard EADGBe

Chords used:
C# -  x46664
G# -  466544
Bbm - x13321
F# -  244322
Eb -  x68886
Bb -  x13331


Intro: C#-G#--Bbm-F#- x4


Verse 1:
G#
so what so what so what
          Bbm     F#
so what became of you
G#                    Bbm F#
why did you disappear?
G#
i heard i heard i
heard you came
Bbm         F#
looking for me
G#
you had something
to share


Chorus 1:
G#            F#
all i say how can i
         C#
resist i won't look back
        Eb
there's nothing to stop me
G#            F#
all i say how can i resist
C#
don't look back you'll
Bbm          Bb
never find me
C#
never find me Now!


Guitar 2: "can I resist"
e|---------|
B|---------|
G|---------|
D|---------|
A|-4-3-1---|
E|-------4-|

          Bbm "never find me"
e|---------------------------------|
B|---------------------------------|
G|-3-3-3-3-3-3-3-3-7-7-7-7-7-7-7-7-|
D|-x-x-x-x-x-x-x-x-x-x-x-x-x-x-x-x-|
A|-1-1-1-1-1-1-1-1-5-5-5-5-5-5-5-5-|
E|---------------------------------|

          C# "never find me"
e|-----------------------------------------|
B|-----------------------------------------|
G|-6-6-6-6-6-6-6-6-10-10-10-10-10-10-10-10-|
D|-x-x-x-x-x-x-x-x--x--x--x--x--x--x--x--x-|
A|-4-4-4-4-4-4-4-4--8--8--8--8--8--8--8--8-|
E|-----------------------------------------|


Interlude: C#-G#--Bbm-F#- x2


Verse 2:
G#
hello hello hello
           Bbm F#
hello it's me again
    G#                 Bbm F#
i'm sorry to bother you
G#
  you know you know
you know more
     Bbm  F# G#
than ever i  need you
               Bbm F#
to make it true
G#
so what so what so what
          Bbm     F#
so what became of you
G#                    Bbm F#
why did you disappear?
G#
  i need i need i need you to
Bbm     F#  G#
show me how it's supposed to feel


Chorus 2:
G#            F#
all i say how can i
         C#
resist i won't look back
        Eb
there's nothing to stop me
G#            F#
all i say how can i resist
C#
don't look back you'll
Eb
never find me


Chorus 3:
G#            F#
all i say how can i
         C#
resist i won't look back
        Eb
there's nothing to stop me
G#            F#
all i say how can i resist
C#
don't look back you'll
Bbm          Bb
never find me
C#
never find me


Guitar Solo:
G#--F#--C#--Eb-- x2

Guitar 2: Solo
         G#                 F#               C#            Eb tr = tremolo effects
e|-----4-----4---4-|-----4-----4---4-|----------------|-------------|
B|-4-4---3-4---4---|-2-2---0-2---2---|-4--3-2-0--2----|-------------|
G|-----------------|-----------------|--------------1-|-1h3-----1tr-|
D|-----------------|-----------------|----------------|------4------|
A|-----------------|-----------------|----------------|-------------|
E|-----------------|-----------------|----------------|-------------|

                G#                         F#
e|---------2---------------2-------|------------------|
B|-4-2-0-2---2-0-2-4-2-0-2---2-0-2-|-2--0--2-3-0------|
G|---------------------------------|--------------1tr-|
D|---------------------------------|------------------|
A|---------------------------------|------------------|
E|---------------------------------|------------------|
        Very fast sweeping!!!

       C#                    Eb                      G#(Chorus)
e|---2---2-4-|-6-6-6-6-8-8-8-8-9-9-9-9-11-11-13-13-|-16-16-16-16-|
B|-4---4-----|-------------------------------------|-------------|
G|-----------|-------------------------------------|-------------|
D|-----------|-------------------------------------|-------------|
A|-----------|-------------------------------------|-------------|
E|-----------|-------------------------------------|-------------|
                     Very fast picking!!!

(Repeat Chorus 2)


Chorus 4:
G#            F#
all i say how can i
         C#
resist i won't look back
        Eb
there's nothing to stop me
G#            F#
all i say how can i resist
C#
don't look back you'll
Bbm
never find me
C#
never find me
Bbm          Bb
never find me
C#           F#-G#--F#-G#(hold)
never find me

__________________________________________________

13.) Desktop Breaking

Key: B then C#

Tuning: Standard EADGBe

Chords used:
B -   x24442
C#m - x46664
G#m - 466444
E -   021100
F# -  244322
C# -  x46664
Ebm - x68876
Bbm - x13321


Intro:

Bass:
      B        C#m       G#m        E
G|---------|---------|---------|---------|
D|---------|---------|---------|---------|
A|-2-2-2-2-|-4-4-4-4-|---------|-7-7-7-7-| x2
E|---------|---------|-4-4-4-4-|---------|


Verse 1:
B         C#m  G#m           E
  And her body bleeds to much
B         C#m    G#m         E
  and her boy is out of touch
B               C#m
  She's learning   she's
         G#m          E
yearning for something
B               C#m
  That something   that
         G#m            E B
only new loves can bring


Refrain 1:
    F#       C#m    G#m    E
She needs to look into new eyes
     B                  F#
Fall into them and this pupil
     C#m    G#m      E
will dive into her desires
     B                 F#       C#m G#m E B E
go into them cause it feels due


Verse 2:
B      C#m      G#m         E
  That girl she was has gone
B          C#m    G#m         E
  and this campus turns her on
B                C#m
  To fresh things   her
          G#m          E
boyfriend just won't be
B              C#m
  He's dull old    and she
      G#m            E
wants shiny and green


Guitar 2: "to fresh things, her boyfriend"
e|-----7-------7------7--12-11----|
B|-4-5-----4-5----4-5----------12-|
G|--------------------------------|
D|--------------------------------| x2
A|--------------------------------|
E|--------------------------------|


Refrain 2:
    F#       C#m    G#m    E
She needs to look into new eyes
     B                  F#
Fall into them and this pupil
     C#m    G#m      E
will dive into her desires
     B                 F#       C#m G#m E B
go into them cause it feels due
   F#       C#m G#m
it feels due


Chorus 1:
B                 C#m
Desktop breaking, filled with guilt
             G#m
She sees the desktop breaking
E
can't control herself
B                 C#m
Desktop breaking, he'd freak out
             G#m
She sees the desktop breaking
E
can't control herself
B                 C#m
Desktop breaking, filled with guilt
             G#m
She sees the desktop breaking
E
can't control herself
B                 C#m
Desktop breaking, he'd freak out
             G#m             E(hold)
She sees the desktop breaking


Verse 3:
B         C#m  G#m           E
  And her body bleeds to much
B         C#m    G#m         E
  and her boy is out of touch


Chorus 2:
B                 C#m
Desktop breaking, filled with guilt
             G#m
She sees the desktop breaking
E
can't control herself
B                 C#m
Desktop breaking, he'd freak out
             G#m
She sees the desktop breaking
E
can't control herself


Chorus 3: Modualte from B to C#
C#                Ebm
Desktop breaking, filled with guilt
             Bbm
She sees the desktop breaking
F#
can't control herself
C#                Ebm
Desktop breaking, he'd freak out
             Bbm
She sees the desktop breaking
F#
can't control herself
(Repeat)


Outro: C#(hold)

____________________________________

14.) The Perfect Remedy

Legend:
Tom Thacker: Rhythm Guitar
Theo Goutzkinakis: Lead Guitar
Craig Wood: Bass

Key: Eb

Tuning: Standard EADGBe

Chords used:
Bb/D - x587xx
Eb -   x68886
Cm -   x35543
Bb -   x13331
G# -   466544


Craig:
       Bb/D                G#                Cm             Eb        Bb
G|-7-7-7-7-7-7-7-7-|-1-1-1-1-1-1-1-1-|-5-5-5-5-5-5-5-5-|-8-8-8-8-|-3-3-3-3-|
D|-----------------|-----------------|-----------------|---------|---------|
A|-----------------|-----------------|-----------------|---------|---------| x3
E|-----------------|-----------------|-----------------|---------|---------|


Tom:
   Bb/D  G#  Cm Eb   Bb
e|-----|---|---|---|---|
B|--3--|-3-|-3-|-3-|-3-|
G|-----|---|---|---|---|
D|-----|---|---|---|---| x2
A|-----|---|---|---|---|
E|-----|---|---|---|---|

Tom: 3rd turn
    Bb/D     G#      Cm      Eb      Bb
e|-------|-------|-------|-------|-------|
B|-3-4---|-3-4---|-3-4---|-3-4---|-3-4---|
G|-----3-|-----3-|-----3-|-----3-|-----3-|
D|-------|-------|-------|-------|-------|
A|-------|-------|-------|-------|-------|
E|-------|-------|-------|-------|-------|
    x2       x2      x2


Theo: will only enter at 2nd turn
    Bb/D     G#     Cm    Eb   Bb
e|-1-----|-1-----|-1-----|--|-1-----|
B|-----1-|-----1-|-----1-|--|-----1-|
G|---3---|---3---|---3---|--|---3---|
D|-------|-------|-------|--|-------|
A|-------|-------|-------|--|-------|
E|-------|-------|-------|--|-------|

Theo: 3rd turn
   Bb/D  G#   Cm   Eb  Bb
e|--1--|-1-|-1--1-|-1-|--|
B|-----|---|------|---|--|
G|-----|---|------|---|--|
D|-----|---|------|---|--|
A|-----|---|------|---|--|
E|-----|---|------|---|--|


Distrotion:

Tom: Bb/D-Eb-Bb/D-Eb-G#--Cm--Eb--Bb-- x2

Theo:
e|-------|
B|-4-----|
G|---3-5-|
D|-------|
A|-------|
E|-------|


Verse 1:
Bb/D
    If I paint a picture
       G#
of the days gone by
Cm
  I could tell a story
          Eb
Minus the truth
         Bb
It's the only way I
Bb/D
    Couldn't walk a
              G#
meter in your shoes
You'll see
When you see
Cm
   They're soaked
                       Eb
I left them out in the rain
            Bb
And they're heavy like weights


Theo: at "coudn't walk a meter"
e|--------------------|
B|-3----3----3----3---|
G|---3----3----3----3-|
D|--------------------|
A|--------------------|
E|--------------------|


Refrain 1:
G#                        Cm  G#
I could help you choose a name
G#                       Cm G#
First thing that I saw today
G#                 Cm     G#
  Make the best of new conditions
G#                   Cm  G#
  It'll never be the same


Verse 2:
Bb/D
    I thought about you
      G#
in my bed last night
Cm
  You were a thousand years old
Eb      Bb
  Had a million boyfriends
Bb/D
    I have a rubber stopper to
   G#
prevent the words from happening
Cm
  Like a troubled spot within and
Eb                Bb
press with all my mightiness


Refrain 2:
G#                   Cm G#
Bend it back all the way
G#                   Cm   G#
This one it'll never break
G#                 Cm   G#
  Make the best of old ideas
G#                 Cm  G#
It'll never be the same


Chorus:
Bb/D    Eb
Pent up in me
Bb/D    Eb    G#
Tied up in my room
I found the
Cm
perfect remedy
         Eb
Spit you out
        Bb
Or just chew it
Bb/D    Eb
Pent up in me
Bb/D    Eb    G#
Tied up in my room
            Cm
You got the best
cut of the deal
        Eb
You lay down
         Bb
With the newest Yeah


Guitar Solo:

Tom: G#--Eb--G#--Eb--G#--

Theo:
e|-----------------|
B|-----------------|
G|-----0-------0---|
D|-1-3---3-1-3---3-| x20
A|-----------------|
E|-----------------|


Silence: Repeat 2nd turn to 3rd turn of intro


(Repeat Refrain 2)
(Repeat Chorus until fade)
Добавлено: 03.06.2013
Другие материалы по этой песне:
  • Аккорды и текст

Страница создана 03.06.2013
http://primanota.ru/gob/the-world-according-to-gob-chords.htm
Привет, Гость.
Предлагаем пройти революционный курс по гитаре.
Подарок от PrimaNota.Ru, забирай!