PrimaNota.ru - самый крупный в мире бесплатный архив песенных текстов, аккордов, табулатур и нот


Gob - Thats The Way - аккорды и текст, видео

Регистрация Запомнить меня
Войти через:  Facebook Google Twitter Vk Yandex Mail.ru

Gob - Thats The Way - аккорды и текст, видео

Печатать
Просмотров: 158
Уроки эстрадного вокала в Санкт-Петербурге
Thats The Way
Gob
Gob
That's The Way
World According To Gob
2000
Submitted by: paramore_fans@yahoo.com

Key: Eb, Bb

Tuning: Standard EADGBe

Chords used:
Ab - 466544
Eb - x68886
F -  133211
Bb - x13331
Gm - 355533
C# - x46664


Intro: G#--Eb--G#--Eb-F-

Guitar 2:
e|-----------------3-----4-----3-1-|
B|-4-3---4-3---4-----4-------4-----|
G|-----3-----3---3-----3---3-------|
D|---------------------------------|
A|---------------------------------|
E|---------------------------------|
                 x3

e|-----------------|-------------------------|
B|-4-3---4-3---4---|-------------------------|
G|-----3-----3---3-|-10-10-10-10-10-10-10-10-|
D|-----------------|-10-10-10-10-10-10-10-10-|
A|-----------------|--8--8--8--8--8--8--8--8-|
E|-----------------|-------------------------|


Verse 1:
Bb
  Don't need no anyone
Eb
  Don't need anybody
Gm
  Talk to me about
F
handling relationships
Bb
  It seems like everyone
Eb
  It seems like everybody
Gm
  I think I really doubt
    F
I'd use their advice and tips


Chorus 1:
Ab
That's the way
I was falling
    Eb
And that's the way
it's supposed to be
Ab
That's the way
I was falling
Eb            F
That's the way


Verse 2:
Bb
  Although it's just begun
Eb
  I've heard enough already
Gm
  I feel I'm all worn out
F
Only just begun this trip
Bb
  This phenomenon which
Eb
  happens naturally
Gm
  Something you hear about
F
more than just companionship


Chorus 2:
Ab
That's the way
I was falling
    Eb
And that's the way
it's supposed to be
Ab
That's the way
I was falling
Eb
That's the way
it's supposed to be


Bridge:
C#           Ab
  I remember when it
                Eb
was breaking my heart
C#            Ab
  Even though then I
             Eb
was falling apart
C#               Ab Eb
  And even though


Guitar 2: Bridge
         C#                 Ab                      Eb
e|-3-3-1-1-3-3-1-1-|-4-4-1-1-4-4-1-1-|-3---1-3---1-3--3---1-3---1-3-|
B|-----------------|-----------------|---4-----4--------4-----4-----|
G|-----------------|-----------------|------------------------------|
D|-----------------|-----------------|------------------------------| x2
A|-----------------|-----------------|------------------------------|
E|-----------------|-----------------|------------------------------|

    C#     Ab    Eb
e|-3--1-|-4--1-|---|
B|------|------|---|
G|------|------|-8-|
D|------|------|-8-|
A|------|------|-6-|
E|------|------|---|


Guitar Solo: Eb-G#- x3, Eb-F--

Guitar 2: Solo
        Eb               Ab              Eb              Ab
e|-3---1-3---1-3-|-4---1-3---1-3-|-3---1-3----1-3-|-4--4-6-4-3---|
B|---4-----4-----|---4-----4-----|---4------4-----|------------4-|
G|---------------|---------------|----------------|--------------|
D|---------------|---------------|----------------|--------------|
A|---------------|---------------|----------------|--------------|
E|---------------|---------------|----------------|--------------|

        Eb               Ab              Eb             F
e|-3---1-3---1-3-|-4---1-3---1-3-|-3---1-3----1-3-|-4--3--1--3-|
B|---4-----4-----|---4-----4-----|---4------4-----|------------|
G|---------------|---------------|----------------|------------|
D|---------------|---------------|----------------|------------|
A|---------------|---------------|----------------|------------|
E|---------------|---------------|----------------|------------|


(Repeat Verse 1)


Chorus 3:
Ab
That's the way
I was falling
    Eb
And that's the way
it's supposed to be
Ab
That's the way
I was falling
Eb
That's the way
it's supposed to be
Ab
That's the way
I was falling
    Eb
And that's the way
it's supposed to be
Ab
That's the way
I was falling
Eb            C# Ab Eb(hold)
That's the way
Добавлено: 28.07.2012
Другие материалы по этой песне:
  • Аккорды и текст

Страница создана 28.04.2012
http://primanota.ru/gob/thats-the-way-chords.htm
Привет, Гость.
Предлагаем пройти революционный курс по гитаре.
Подарок от PrimaNota.Ru, забирай!