PrimaNota.ru - самый крупный в мире бесплатный архив песенных текстов, аккордов, табулатур и нот


Gob - Sleepyhead - аккорды и текст, таба, бас-таба, видео

Регистрация Запомнить меня
Войти через:  Facebook Google Twitter Vk Yandex Mail.ru

Gob - Sleepyhead - аккорды и текст, таба, бас-таба, видео

Печатать
Просмотров: 242
Уроки эстрадного вокала в Санкт-Петербурге
Sleepyhead
Gob
Gob
Sleepyhead
World According To Gob
2001
Submitted by: paramore_fans@yahoo.com

Key: F#, B

Tuning: Standard EADGBe

Chords used:
B -     x24442
Abm -   466444
Ebm -   x68876
F# -    244322
C# -    x46664
E -     022100
F#/Bb - x143xx
Bbm -   x13321


Intro:

Guitar 1:
      B        Abm       Ebm        F#
e|---------|---------|---------|---------|
B|---------|---------|---------|---------|
G|---4-3---|---4-3---|---4-3---|---4-3---|
D|-------4-|-------4-|-1-----4-|-------4-| x3
A|-2-------|---------|---------|---------|
E|---------|-4-------|---------|-2-------|

Guitar 2:
e|-14----14----14----|-14----14----18-|
B|----14----14----14-|----14----14----|
G|-------------------|----------------|
D|-------------------|----------------|
A|-------------------|----------------|
E|-------------------|----------------|
          x3

e|-14----14----14----|-18-|
B|----14----14----14-|----|
G|-------------------|----|
D|-------------------|----|
A|-------------------|----|
E|-------------------|----|
          x3

Verse 1:
B         Abm
  Painted murder
       Ebm
on the wall
          F#
footsteps coming
C#       B
down the hall
       Abm
to the window
            Ebm
through the blinds
    C#      F#
runaway but i still
B          Abm
  hear the footsteps
Ebm        F#      C#
   closing in again
B               Abm
  This time the plane
         Ebm
is going down
       C#       F#
double over get ready


Interlude:

Guitar 1:
      B        Abm       Ebm        F#
e|---------|---------|---------|---------|
B|---------|---------|---------|---------|
G|---4-3---|---4-3---|---4-3---|---4-3---|
D|-------4-|-------4-|-1-----4-|-------4-|
A|-2-------|---------|---------|---------|
E|---------|-4-------|---------|-2-------|

Guitar 2:
e|-14----14----14----|-18-|
B|----14----14----14-|----|
G|-------------------|----|
D|-------------------|----|
A|-------------------|----|
E|-------------------|----|
          x3

Verse 2:
B       Abm           Ebm
  I'm allergic to the light
        F#
and the darkness
C#        B
brings me fright
through the
Abm
peep-hole i saw
Ebm         C#       B
   suicidal neighbors they
B           Abm
   turn the doorknob
Ebm     F#      C#
   came in again
Abm           Ebm
   someone's sleeping
      Bbm
in my bed
         B
close my eyes and


Chorus 1:
        F#
i had a dream
         B
inside a dream
          C#   Abm
i woke so many times
  Ebm               B
i dont know if i'm awake
(Repeat)


Guitar 2:
         F#                B
e|-2-2-2-1-1-1-2-1-|-2-2-2-1-1-1-2-1-|
B|-----------------|-----------------|
G|-----------------|-----------------|
D|-----------------|-----------------|
A|-----------------|-----------------|
E|-----------------|-----------------|
         x2                x2

         C#                Abm         Ebm  B
e|-2-2-2-1-1-1-----|-4-4-4-2-2-2-1-1-|----|---|
B|-------------4-4-|-----------------|----|---|
G|-----------------|-----------------|-8--|-4-|
D|-----------------|-----------------|-8--|-4-|
A|-----------------|-----------------|-6--|-2-|
E|-----------------|-----------------|----|---|

         F#                B
e|-2-2-2-1-1-1-2-1-|-2-2-2-1-1-1-2-1-|
B|-----------------|-----------------|
G|-----------------|-----------------|
D|-----------------|-----------------|
A|-----------------|-----------------|
E|-----------------|-----------------|
         x2                x2

         C#                Abm         Ebm  B
e|-2-2-2-1-1-1-----|-4-4-4-6-6-6-2-2-|----|---|
B|-------------4-4-|-----------------|----|---|
G|-----------------|-----------------|-8--|-4-|
D|-----------------|-----------------|-8--|-4-|
A|-----------------|-----------------|-6--|-2-|
E|-----------------|-----------------|----|---|


Interlude:

Guitar 1: B-Abm-F#/Bb-B-B-Abm-Ebm-E-

Guitar 2:
e|-----------------|---|
B|---0-2---2-0-2-0-|---|
G|-------1---------|-4-|
D|-4---------------|-4-|
A|-----------------|-2-|
E|-----------------|---|
         x3

e|-----------------|---|
B|---0-2---2-0-2-0-|---|
G|-------1---------|-9-|
D|-4---------------|-9-|
A|-----------------|-7-|
E|-----------------|---|
         x3

Verse 3:
B         Abm
  jam the forceps
      Ebm
in my eye
          F#
keep them open
C#          B
through the night
       Abm
listen to a
       Ebm
grainy voice
           C#
the night speaks
 F#
(It Says)
B            Abm
  paint your morning
Ebm             F#        C#
   its great to meet again
B       Abm           Ebm(hold) C# F#-
  outta bed you sleepyhead


(Repeat Chorus 1)


Chorus 2:
        B    F#
i had a dream
         B
inside a dream
          C#   Abm
i woke so many times
  Ebm               B
i dont know if i'm awake
(Repeat)


Outro:

Guitar 1: B-Abm-Ebm-E- x4

Guitar 2:
e|-----------------|---|
B|---0-2---2-0-2-0-|---|
G|-------1---------|-9-|
D|-4---------------|-9-|
A|-----------------|-7-|
E|-----------------|---|
         x3
Добавлено: 10.03.2012
Другие материалы по этой песне:

Страница создана 10.03.2012
http://primanota.ru/gob/sleepyhead-chords.htm
Привет, Гость.
Предлагаем пройти революционный курс по гитаре.
Подарок от PrimaNota.Ru, забирай!