PrimaNota.ru - самый крупный в мире бесплатный архив песенных текстов, аккордов, табулатур и нот


Gob - Open Wounds - аккорды и текст, таба, видео

Регистрация Запомнить меня
Войти через:  Facebook Google Twitter Vk Yandex Mail.ru

Gob - Open Wounds - аккорды и текст, таба, видео

Печатать
Просмотров: 178
Open Wounds
Gob
Gob
Open Wounds
Muertos Vivos
2007
Submitted by: paramore_fans@yahoo.com

Key: Eb

Tuning: Standard EADGBe

Chords used:
Cm -   x35543
Bb/D - x587xx
Gm -   355333
Bb -   x13331
Ab -   466544
Eb -   x68886


Intro: Cm-Bb/D-Bb-Ab- x4

Guitar 2:
     Cm       Bb/D      Bb     Ab
e|-------|-----------|-------|-------------|
B|-4-4-4-|-4-4-4-4-4-|-4-4-4-|-4-4-4-4-4-4-|
G|-5-5-5-|-7-7-7-7-7-|-3-3-3-|-3-3-3-3-3-3-|
D|-------|-----------|-------|-6-6-6-6-6-6-| x4
A|-------|-----------|-------|-------------|
E|-------|-----------|-------|-------------|


Verse 1:
  Cm          Bb/D   Bb          Ab
I know you're good I know you're right
     Cm     Bb/D    Bb     Ab
And still I wonder still I fight
  Cm       Bb/D  Bb       Ab
I count my paces under my breath
  Cm       Bb/D Bb      Ab     Cm Bb/D
Unconsciously I make my way to you
     Bb      Ab      Cm Bb/D
With nothing left to say    I 
Gm          Ab        Cm
break every promise I make
    Bb/D    Bb
And when my heart beats it 
Ab      Cm           Bb/D
hurts before it gets better
     Bb        Ab
It's gotta get worse so I nurse


Basslines: in "make my way to you" x2
      Cm         Bb/D       Bb       Ab
G|----8----8-|-7-8-7-8-|---8---8-|---8---8-|
D|-10---10---|---------|-8---8---|-6---6---|
A|-----------|---------|---------|---------|
E|-----------|---------|---------|---------|

      Cm          Bb        Gm       Ab
G|----8----8-|---8---8-|---8---8-|---8---8-|
D|-10---10---|-8---8---|-5---5---|-6---6---|
A|-----------|---------|---------|---------|
E|-----------|---------|---------|---------|


Chorus:
Ab     Bb           Ab
  Open wounds, open minds, I 
     Bb                    Ab
need you to take the pain away
     Bb                Eb
I forget you and you remind me 
and I miss you, I missed you


Interlude: Cm-Bb/D-Bb-Ab- x2

Basslines: Interlude:
    Cm     Bb/D   Bb     Ab
G|-------|-----|-------|---|
D|---1---|-0---|-------|---|
A|-3---3-|-----|-1-1-1-|---|
E|-------|-----|-------|-4-|

    Cm     Bb/D   Bb     Ab
G|-------|-----|-------|---|
D|---1---|-0---|-------|-6-|
A|-3---3-|-----|-1-1-1-|---|
E|-------|-----|-------|---|


Verse 2:
       Cm                Bb/D
Didn't know that I could feel
       Bb           Ab
didn't know I could fall
  Cm             Bb/D
I want to take a minute 
    Bb      Ab
and look at you
    Cm       Bb/D
The precious way you 
Bb         Ab
carry your head
        Cm      Bb
I won't take my eyes 
     Gm   Ab
off you until I'm dead


(Repeat Chorus twice)


Bridge:
Cm        Gm           Ab
  I watch you hold you tight
          Bb
Feel your heart beat
Gm       Cm
hear you sigh
           Gm
Before you go close 
     Ab          Bb--
your eyes make a wish


(Repeat Chorus twice)


Outro:
Ab      Bb
  and I miss you, I missed you oh
Ab      Bb                       Cm Gm Ab Bb--
  and I miss you, I missed you oh


Cm-Bb/D-Bb-Ab- x4
Добавлено: 23.04.2012
Другие материалы по этой песне:

Страница создана 23.04.2012
http://primanota.ru/gob/open-wounds-chords.htm
Привет, Гость.
Предлагаем пройти революционный курс по гитаре.
Подарок от PrimaNota.Ru, забирай!