PrimaNota.ru - самый крупный в мире бесплатный архив песенных текстов, аккордов, табулатур и нот


Gob - Ok - аккорды и текст, видео

Регистрация Запомнить меня
Войти через:  Facebook Google Twitter Vk Yandex Mail.ru

Gob - Ok - аккорды и текст, видео

Печатать
Просмотров: 145
Уроки эстрадного вокала в Санкт-Петербурге
Ok
Gob
Gob
Ok
How Far Shallow Takes You
1998
Submitted by: paramore_fans@yahoo.com

Legend:
Tom Thacker: Guitar 1
Theo Goutzinakis: Guitar 2
Craig Wood: Bass

Key: F#

Tuning: Standard EADGBe

Chords used:
C# -   x46664
Ebm -  x68876
F# -   244322
C#/F - 143xxx
B -    x24442
Abm -  466444
E -    022100


Intro:

Part 1:

Craig: Bass Solo
         Ebm
G|------------------|
D|------1-1-1-4-1-1-|
A|-4-6--------------| x8
E|------------------|

Tom: x means palm mute, ! means artifical harmonics
             Ebm           F#
e|------------|-----14!-|-----|---|
B|------------|---------|-----|---|
G|-8--------8-|-8-------|-----|---|
D|-8--------8-|-8-------|-4-4-|-3-|
A|-6--6-6-6-6-|-6-------|-4-4-|-4-|
E|------------|---------|-2-2-|-1-|
      x x x
       x2

Part 2: Distorted Part

Craig:
    Ebm        B               F#          C#/F
G|-------|-----------|--------------------|---|
D|-------|-----------|--------------------|---|
A|-6-6-6-|-2-2-2-2-2-|--------------------|---| x3
E|-------|-----------|-2--2-2-2-2-2--2--2-|-1-|

    Ebm        B               F#          Abm
G|-------|-----------|--------------------|---|
D|-------|-----------|--------------------|---|
A|-6-6-6-|-2-2-2-2-2-|--------------------|---|
E|-------|-----------|-2--2-2-2-2-2--2--2-|-4-|

Tom:
    Ebm        B               F#          C#/F
e|-------|-----------|--------------------|---|
B|-------|-----------|--------------------|---|
G|-8-8-8-|-4-4-4-4-4-|--------------------|---|
D|-8-8-8-|-4-4-4-4-4-|-4--4-4-4-4-4--4--4-|-3-|
A|-6-6-6-|-2-2-2-2-2-|-4--4-4-4-4-4--4--4-|-4-| x3
E|-------|-----------|-2--2-2-2-2-2--2--2-|-1-|
                          x x x x x  x  x

    Ebm        B               F#          Abm
e|-------|-----------|--------------------|---|
B|-------|-----------|--------------------|---|
G|-8-8-8-|-4-4-4-4-4-|--------------------|---|
D|-8-8-8-|-4-4-4-4-4-|-4--4-4-4-4-4--4--4-|-6-|
A|-6-6-6-|-2-2-2-2-2-|-4--4-4-4-4-4--4--4-|-6-|
E|-------|-----------|-2--2-2-2-2-2--2--2-|-4-|
                          x x x x x  x  x

Theo:
e|---------------|
B|----------2h4!-|
G|-3-3--4--------|
D|--------4------|
A|---------------|
E|---------------|


Verse 1:
Ebm  B         F#       Abm
   I break the bones to pieces
Ebm   B           F#        Abm
   in my hands my clenching fingers
Ebm     B            F#   Abm
   Were you the same all along
      Ebm      B
did I just get bored
    F#              Abm(hold) B-B-B-
Why did I push you away


Verse 2:
Ebm   B        F#           Abm
   I still sit plagues with questions
Ebm     B       F#     Abm
   your actions your intentions
Ebm    B                 F#      Abm
   Why couldn't you just talk to me
Ebm    B
   Was it that I just
F#                Abm(hold)
couldn't smile anymore
                    B
Tired of keeping it inside


Chorus:
F#     C#     B
  so I failed at you
    F#             C# B
And now I pass out e--very night
    Ebm         C#
i associate the worst things
          Ebm
With your face
F#      C#   B
  and I know you're at
  F#
a loss from what
    C#    B      Ebm
You threw away I just wish
             C#          Ebm
that you had left my innocence


Theo: Chorus
e|-2-1-2-1-2-4--2-1-2-1-2-4--------------------------|
B|---------------------------------0-0-2-2-4-2-2-0---|
G|---------------------------3-3-3-----------------3-|
D|---------------------------------------------------|
A|---------------------------------------------------|
E|---------------------------------------------------|


Post Chorus: Slower Beat

Craig:
         F#                Abm
G|-----------------|-----------------|
D|-----------------|-----------------|
A|---------1h2p1---|-----------------| x3
E|-2-2-2-2-------2-|-4-4-4-4-4-4-4-4-|

         F#            Ebm      E
G|-----------------|---------|---------|
D|-----------------|-1-1-1-1-|---------|
A|---------1h2p1---|---------|---------|
E|-2-2-2-2-------2-|---------|-0-0-0-0-|

         F#                Abm
G|-----------------|-----------------|
D|-----------------|-----------------|
A|---------1h2p1---|-----------------| x3
E|-2-2-2-2-------2-|-4-4-4-4-4-4-4-4-|

         F#            Ebm      E
G|-----------------|---------|---------|
D|-----------------|-1-1-1-1-|---------|
A|---------1h2p1---|---------|---------|
E|-2-2-2-2-------2-|---------|-0-0-0-0-|


Tom:
     F#         Abm
e|-------|-----------------|
B|-------|-----------------|
G|-------|-----------------|
D|-4-4-4-|-6-6-6-6-6-6-6-6-| x3
A|-4-4-4-|-6-6-6-6-6-6-6-6-|
E|-2-2-2-|-4-4-4-4-4-4-4-4-|
   x x     x x   x x   x

     F#      Ebm        E
e|-------|---------|---------|
B|-------|---------|---------|
G|-------|-8-8-8-8-|---------|
D|-4-4-4-|-8-8-8-8-|-2-2-2-2-|
A|-4-4-4-|-6-6-6-6-|-2-2-2-2-|
E|-2-2-2-|---------|-0-0-0-0-|
   x x

     F#         Abm
e|-------|-----------------|
B|-------|-----------------|
G|-------|-----------------|
D|-4-4-4-|-6-6-6-6-6-6-6-6-| x3
A|-4-4-4-|-6-6-6-6-6-6-6-6-|
E|-2-2-2-|-4-4-4-4-4-4-4-4-|
   x x     x x   x x   x

         F#           Ebm        E
e|----------------|---------|---------|
B|--------2h4p2---|---------|---------|
G|--------------3-|-8-8-8-8-|---------|
D|-4-4-4----------|-8-8-8-8-|-2-2-2-2-|
A|-4-4-4----------|-6-6-6-6-|-2-2-2-2-|
E|-2-2-2----------|---------|-0-0-0-0-|
   x x x


Theo:
e|---------|
B|---------|
G|-3h4p3---|
D|-------4-| x8
A|---------|
E|---------|


Outro:
F#     Abm         F#
  Even now I still wonder how
    Abm       F#
you are truly concerned
            Abm       F#
That you're well even though
           Ebm     E
you put me through this
F#          Abm
  Because I see that it's
F#              Abm
better off this way
       F#               Abm
When I think that it is right
      F#             Ebm E
and I know that I'm ok


Theo: at "truly" and "is right"
e|-13-14----|
B|-------14-|
G|----------|
D|----------|
A|----------|
E|----------|


End on: F#(hold)--B-C#-
Добавлено: 23.02.2012
Другие материалы по этой песне:
  • Аккорды и текст

Страница создана 23.02.2012
http://primanota.ru/gob/ok-chords.htm
Привет, Гость.
Предлагаем пройти революционный курс по гитаре.
Подарок от PrimaNota.Ru, забирай!