PrimaNota.ru - самый крупный в мире бесплатный архив песенных текстов, аккордов, табулатур и нот


Gob - Oh Ellin - аккорды и текст, таба, бас-таба, видео

Регистрация Запомнить меня
Войти через:  Facebook Google Twitter Vk Yandex Mail.ru

Gob - Oh Ellin - аккорды и текст, таба, бас-таба, видео

Печатать
Просмотров: 317
Oh Ellin
Gob
Gob
Oh Ellin
Foot In Mouth Disease
2003
Submitted by: paramore_fans@yahoo.com

Key: C then D

Tuning: Standard EADGBe

Chords used:
Am - x02210
F -  133211
C -  x32010
G -  320033
Bm - x24432
D -  xx0232
A -  x02220


Intro:
Am        F             C G
oh! Ellin what can i do?
Am        F             C G
oh! Ellin what can i do?


Chorus 1:
Am        F
oh! Ellin what can i do?
C
  there is nothing
 G
aside from you
Am        F
oh! Ellin what can i do?
C
  there is nothing
 G
aside from you


Interlude: Am--

Guitar 2:
e|-----------10-8----10-8----|
B|----------------10------10-|
G|---------------------------|
D|-7-7-7-7-7-----------------|
A|-7-7-7-7-7-----------------|
E|-5-5-5-5-5-----------------|


Verse 1:
F G    F  G   F    G
i hate to say i'm starting
F G          G Am
a-gain to try    to get you
          F    F  G
off of my mind i  must
F G   F    G       F
admit it's so hard to
G           G Am
do oh Ellin!    with no you
      F    F G    F
by my side i have the
G      F  G       F
chance to land on my
G           G Am
own two feet    and keep
my chin off the
F      F   G   F
ground but now you're
G    F G          F G
gone i bet myself up
        G Am
about it    it sucks
             F    Am
without you around  it
sucks when you're not
 G
around


Chorus 2:
Am       F
Oh Ellin what
         C
can i do? there is nothing
 G             Am
aside from you oh!
      F
Ellin what can i lose?
C                G
there's nothing aside on you
Am     F     C     G
  oh oh oh oh oh oh oh oh

Guitar 2: at "oh oh"
e|------------|
B|------------|
G|-9--9--9--9-|
D|-x--x--x--x-|
A|-7--7--7--7-|
E|------------|


Verse 2:
 G(hold)
i trace your
steps but i get lost i
   Am
bet  i'ts what you had
   F    F   G     F
in mind and can't you
G   F    G      F   G
see that all is not well
         G Am
oh! Ellin    not since you
          F    F G
left me behind i waste
F G   F    G
a-way it's miserable
F   G           G Am
here it's stupid    to
               F
even try to pretend
  F     G    F    G
because when you slip
F  G       F   G
my mind i start to
     G Am
panic    i'm scared to lose
     F    Am
you again i'm scared
               F
i'll lose you again


Chorus 3:
Am       F
Oh Ellin what
         C
can i do? there is nothing
 G             Am
aside from you oh!
      F
Ellin what can i lose?
C                G
there's nothing aside on you
Am       F
Oh Ellin what
         C
can i do? there is nothing
 G             Am
aside from you oh!
      F
Ellin what can i lose?
C                G
there's nothing aside on you


Guitar Solo: Modulate from C to D
Bm--G--Bm--D-G-A- x3, Bm--G--A--F----

Guitar 2: Solo
       Bm            G            Bm            D    
 G     A
e|--------------|-------9-|-9--9-----------|---------|----|------|
B|--------10-12-|-10-12---|-------12-10----|---------|----|------|
G|-11--11-------|---------|-------------11-|-11-10-9-|----|----9-|
D|--------------|---------|----------------|---------|-12-|-12---|
A|--------------|---------|----------------|---------|----|------|
E|--------------|---------|----------------|---------|----|------|

           Bm                   D                   Bm
e|--------------------|-10---------------|-14--14--14-13-12-10-|
B|----10-11-12--10-12-|-----12p10h12--12-|---------------------|
G|-11-----------------|------------------|---------------------|
D|--------------------|------------------|---------------------|
A|--------------------|------------------|---------------------|
E|--------------------|------------------|---------------------|

      G          A               Bm                    G
e|----------|---------|----------------------|--------------------|
B|-10/12----|-10/12---|-12/14------12/14-----|-15-14-12-----12-14-|
G|----------|---------|----------------------|----------14--------|
D|--------9-|-------9-|--------11---------11-|--------------------|
A|----------|---------|----------------------|--------------------|
E|----------|---------|----------------------|--------------------|

          A                                  F
e|--------------------|----------------------------------------------|
B|-15-14-12--------12-|-13p12h13p12h13p12h13p12h13p12h13p12h13p12p10-|
G|----------14--14----|----------------------------------------------|
D|--------------------|----------------------------------------------|
A|--------------------|----------------------------------------------|
E|--------------------|----------------------------------------------|


Interlude: Am--F--C--G-- x2


Chorus 4:
Am        F
oh! Ellin what can i do?
C
  there is nothing
 G
aside from you
Am        F
oh! Ellin what can i do?
C
there is nothing
 G            Am F
aside from you
C                  G            Am F
 there is nothing aside from you
C                  G(hold)
 there is nothing aside from you


Guitar 2: "aside from you"
e|---------------------------|
B|---------------------------|
G|-5-5-5-5-5-5-5-5--|
D|-x-x-x-x-x-x-x-x--|
A|-3-3-3-3-3-3-3-3--|
E|---------------------------|

Gutiar 3: "aside from you"
e|---------------------------|
B|---------------------------|
G|-9-9-9-9-9-9-9-9--|
D|-x-x-x-x-x-x-x-x--|
A|-7-7-7-7-7-7-7-7--|
E|---------------------------|


Chorus 5:
Am       F
Oh Ellin what
         C
can i do? there is nothing
 G             Am
aside from you oh!
      F
Ellin what can i lose?
C                  G
  there's nothing aside on you
Am       F
Oh Ellin what
         C
can i do? there is nothing
 G             Am
aside from you oh!
      F
Ellin what can i lose?
C                G
there's nothing aside from you
Am        F
oh! Ellin what can i do?
C                G
there's nothing aside from you
Am        F
oh! Ellin what can i do?
C                G       Am(hold)
there's nothing aside from you
Добавлено: 20.06.2012
Другие материалы по этой песне:

Страница создана 11.03.2012
http://primanota.ru/gob/oh-ellin-chords.htm
Привет, Гость.
Предлагаем пройти революционный курс по гитаре.
Подарок от PrimaNota.Ru, забирай!