PrimaNota.ru - самый крупный в мире бесплатный архив песенных текстов, аккордов, табулатур и нот


Gob - No Regrets - аккорды и текст, таба, бас-таба, видео

Регистрация Запомнить меня
Войти через:  Facebook Google Twitter Vk Yandex Mail.ru

Gob - No Regrets - аккорды и текст, таба, бас-таба, видео

Печатать
Просмотров: 192
No Regrets
Gob
Gob
No Regrets
The World According To Gob
2001
Submitted by: paramore_fans@yahoo.com

Key: A

Tuning: Standard EADGBe

Chords used:
A -   x02220
D -   xx0232
F#m - 244222
G -   320033
E -   022100


Intro: Drumbeats

Bass: A-- x8

Guitar: A-- x4
e|-0--0--0--0--0-|
B|-2--2--3--2--0-|
G|-2--2--2--2--2-|
D|-2--2--2--2--2-|
A|-0--0--0--0--0-|
E|---------------|


Verse 1:
A(hold)
all the things that i've regretted
and all the place i was 
E
headed with you
i wanna pursue
A
even though you're not 
A go-getter
you could show me
                          E
we could do better you'll see
                 F#m
take a chance on me


Chorus 1:
      A      D
but i know i know
     F#m
this feeling that 
  E              A
i have inside of me
   D     F#m
in me my belly's
        E
burning and it's turning
A         D
don't you see
    F#m       E        A    E
i'm upset and yet no regrets


Verse 2:
A
if there ever was a time 
when i could go back and 
make it all fine with 
E
you i wanna pursue
A
all the blood and tears i've 
sweated all the work we 
                       E
can't forget it you'll see
                 F#m
take a chance on me


(Repeat Chorus 1)

Guitar Solo: A--E--A--E-F#m, 
A-D-F#m-E- x2, A-D-F#m-G-A, F#m-G-A

Guitar 2: Solo
                 A                                E
e|-------------------------0-------|------------4-4-4-4-2-2-2-2-|
B|-2-2-2-2-3-2-0---2-2-2-3---3-2---|-0--------------------------|
G|---------------2---------------2-|-----1----------------------|
D|---------------------------------|--------2-------------------|
A|---------------------------------|----------------------------|
E|---------------------------------|----------------------------|

                 A                         E                 F#m
e|-------------------------0-------|--------------|----|-----------------|
B|-2-2-2-2-3-2-0---2-2-2-3---3-2---|-0----------0-|-2--|-2-3-2-0-2-0-----|
G|---------------2---------------2-|-----2-2-2----|----|-------------2-1-|
D|---------------------------------|--------------|----|-----------------|
A|---------------------------------|--------------|----|-----very-fast---|
E|---------------------------------|--------------|----|-----------------|

    A       D       F#m        E
e|----0-|-------|---------|---------|
B|------|-3---3-|-2--3--2-|-0--2--0-|
G|-2----|-------|---------|---------|
D|------|-------|---------|---------|
A|------|-------|---------|---------|
E|------|-------|---------|---------|

    A       D       F#m        E       A      D
e|----0-|-------|---------|-2--0----|----0-|------|
B|------|-3---3-|-2--3--2-|-------3-|------|-3--3-|
G|-2----|-------|---------|---------|-2----|------|
D|------|-------|---------|---------|------|------|
A|------|-------|---------|---------|------|------|
E|------|-------|---------|---------|------|------|

      F#m            G       A
e|------------|------------|----|
B|------------|------------|----|
G|-11--11--11-|-12--12--12-|-14-|
D|--x---x---x-|--x---x---x-|--x- x2
A|--9---9---9-|-10--10--10-|-12-|
E|------------|------------|----|


Verse 3:
A
all the things that 
i've regretted 
and all the places 
                  E
i was headed with you
A
no more standing 
around i've said it
get off your ass and we'll 
                 E
go get it you'll see 
                 F#m
take a chance on me


Chorus 2:
      A      D
but i know i know
     F#m
this feeling that 
  E              A
i have inside of me
   D     F#m
in me my belly's 
        E
burning and it's turning
A         D
don't you see
    F#m       E         A   D
i'm upset and yet no regrets
    F#m       E         A   D
i'm upset and yet no regrets
    F#m       E         A   E A(hold)
i'm upset and yet no regrets
Добавлено: 09.07.2012
Другие материалы по этой песне:

Страница создана 29.03.2012
http://primanota.ru/gob/no-regrets-chords.htm
Привет, Гость.
Предлагаем пройти революционный курс по гитаре.
Подарок от PrimaNota.Ru, забирай!