PrimaNota.ru - самый крупный в мире бесплатный архив песенных текстов, аккордов, табулатур и нот


Gob - My Favorite Shoplifter - аккорды и текст, видео

Регистрация Запомнить меня
Войти через:  Facebook Google Twitter Vk Yandex Mail.ru

Gob - My Favorite Shoplifter - аккорды и текст, видео

Печатать
Просмотров: 105
My Favorite Shoplifter
Gob
Gob
My Favorite Shoplifter
Foot In Mouth Disease
2003
Submitted by: paramore_fans@yahoo.com

Key: F#, C#, Bb

Tuning: Standard EADGBe

Chords used:
Ebm - x68876
Bbm - x13321
F# -  244322
C# -  x46664
Ab -  466544
B -   x24442
Gm -  355533
Eb -  x68886
F -   133211


Intro: Ebm-Bbm-F#-- x2

Guitar 2: F#
e|---------------------------------|
B|---------------------------------|
G|-----6-----6-----6-----6-----6---|
D|-3-4---3-4---3-4---3-4---3-4---4-|
A|---------------------------------|
E|---------------------------------|

e|---------------------------------|
B|---------------------------------|
G|---------------------------------|
D|---------------------------------|
A|-----4-----4-----4-----4-----4---|
E|-1-2---1-2---1-2---1-2---1-2---2-|

Verse 1:
Ebm     Bbm        F#
   This might seem mean but I mean it
Ebm     Bbm       F#
   I'll back this up and won't back down
Ebm   Bbm     F#
   So what if I hurt your feelings
Ebm           Bbm
   Why should I care?
F#
  You're all wrapped up in yourself


Interlude: Ebm-Bbm-F#--

Guitar 2:
e|---------------------------------|
B|---------------------------------|
G|-----6-----6-----6-----6-----6---|
D|-3-4---3-4---3-4---3-4---3-4---4-|
A|---------------------------------|
E|---------------------------------|


Verse 2:
Ebm     Bbm          F#
   Your friends they don't want to see you
Ebm     Bbm  F#
   Everybody knows that you're fucked up
Ebm    Bbm     F#
   You left me here with your loose ends
Ebm      Bbm       F#
   Maybe you'll get  tangled

up in them and fall down


Breakdown:
e|---------------------------------|
B|---------------------------------|
G|-----6-----6-----6-----6-----6---|
D|-3-4---3-4---3-4---3-4---3-4---4-|
A|---------------------------------|
E|---------------------------------|


Chorus 1:
C#           Ab
I wrote this song
            B
to make you cry
           F# Ebm B
So say goodbye
C#           Ab
I wrote this song
            B
to make you cry
           F# Ebm B
So say goodbye


Verse 3:
Ebm  Bbm      F#
   I just met Winona Ryder
Ebm  Bbm       F#
   I know that she
is your idol
Ebm     Bbm    F#
   Just so you know
she can't stand you
Ebm        Bbm
   But she digs me
F#
   And she gave me
her home number


(Repeat Breakdown)
(Repeat Chorus)


Interlude: Gm--Eb-- x2


Bridge:
Gm         Eb
  Now I've burned up all
Gm        Eb
  Of your pictures and
F     Eb
  Any evidence
F      Eb
  To remind me of
Gm   Eb
  Anything we said
Gm   Eb
  Anyway i can
F            Eb
  I won't be left alone with
F               Eb
  your presence haunting me


Interlude: Ebm-Bbm-F#-- x2

Guitar 2:
e|---------------------------------|
B|---------------------------------|
G|-----6-----6-----6-----6-----6---|
D|-3-4---3-4---3-4---3-4---3-4---4-|
A|---------------------------------|
E|---------------------------------|

e|---------------------------------|
B|---------------------------------|
G|---------------------------------|
D|---------------------------------|
A|-----4-----4-----4-----4-----4---|
E|-1-2---1-2---1-2---1-2---1-2---2-|

(Repeat Chorus 1)


Chorus 2:
C#          Ab
I hope this song
              B
will make you cry
          F#   Ebm B
A million times
C#          Ab
I hope this song
              B
will make you cry
          F#   Ebm B-F#(hold)
A billion times
Добавлено: 22.03.2012
Другие материалы по этой песне:
  • Аккорды и текст

Страница создана 22.03.2012
http://primanota.ru/gob/my-favorite-shoplifter-chords.htm
Привет, Гость.
Предлагаем пройти революционный курс по гитаре.
Подарок от PrimaNota.Ru, забирай!