PrimaNota.ru - самый крупный в мире бесплатный архив песенных текстов, аккордов, табулатур и нот


Gob - Muertos Vivos - аккорды и текст, видео

Регистрация Запомнить меня
Войти через:  Facebook Google Twitter Vk Yandex Mail.ru

Gob - Muertos Vivos - аккорды и текст, видео

Печатать
Просмотров: 113
Muertos Vivos
Gob
Gob
Muertos Vivos
2007
Submitted by: paramore_fans@yahoo.com

Tuning: All songs are in Standard EADGBe tuning
except FACE THE ASHES and PRESCRIPTION whose are in DROP D

Tracklist:
01. We're All Dying
02. War Is A Cemetery
03. Dead End Love
04. Prescription
05. Underground
06. Still Feel Nothing
07. Banshee Song
08. 18
09. About My Summer
10. Face The Ashes
11. Open Wounds
12. Wake Up

Bonus Tracks:
13.) Embitter Me Sweet
14.) Girl A

_____________________________________________________

1.) We're All Dying

Key: E

Tuning: Standard EADGBe

Chords used:
C#m - x46654
A -   x02220
E -   022100
B -   x24442
F#m - 244222
Ebm - x68876


Intro: C#m--


Verse 1: Chordless
We feel sick
Broken down
Drug ourselves
Underground
No one cares
We curse you all
We curse ourselves
In hopes we fall


Verse 2:
F#m                E
Friday night and I made the best of it
B                     C#m
I passed out before I could invest in it
F#m            E
Understand, it won't make sense
    B             C#m
But I don't value innocence
B                C#m
I don't hope for anything


Chorus:
C#m      A        E
  Enemy, fuck the clique
             F#m    C#m
Come on over to our side
               A     E
We're the same just afraid
What's the difference
     F#m       C#m A
When we're all dying


Verse 3: Chordless
Oh my god, we're so set
In our own ways
that we forget
We are insignificant
We'll be gone
Soon be forgotten


Verse 4:
F#m
When you said to me
E
I was dead to you
B
I accepted that
  C#m
I disagreed with you
F#m
What we want
E
We don't know
B
Give us cages
C#m
Let us go
B
Give us cages
C#m
Let us go


(Repeat Chorus twice)


Guitar Solo:
E-C#m-Ebm-C#m-Ebm-C#m-F#m--E--F#m-- x6


Interlude: C#m--E--B--C#m-- x2


(Repeat Chorus twice)


Outro:
C#m A         E
    we're all dying
F#m       C#m
we're all dying
A         E
we're all dying
F#m       C#m(hold)
we're all dying

__________________________________________

2.) War Is A Cemetery

Key: F#

Tuning: Standard EADGBe

Chords used:
Ebm -  x68876
B -    x24442
F# -   244322
C# -   x46664
G#m -  466444
Bb -   x13331
Bbm -  x13321
E -    022100
Bb/D - x587xx


Intro: Ebm--C#-Ebm--C#-Ebm--C#-Ebm---|
Ebm--C#-Ebm--C#-Ebm--C#-Ebm----------|
Ebm--C#-Ebm--C#-Ebm--C#-Ebm----------|C#(hold)


Verse 1:
Ebm                        B
  Look at this shit called war
          F#
Where the poor kill and die to
         G#m
make the rich even richer oh
Ebm                 B
  Let the oilfields burn
       F#
If the profit wasn't there
        G#m
they'd abort the mission


Refrain 1:
Ebm--C#-Ebm
           They'll ship you
B
off you should
        Bbm
run in another direction
Ebm--C#-Ebm
           They need you
B
  for a low cost
Bbm
form of protection
  B         Bb          Ebm--C#-Ebm--C#-Ebm--C#(hold)
I won't go anywhere for war


Verse 2:
Ebm                     B
   And so the beat goes on
         F#
While we drown in the blood
       G#m
of the unfortunate ones
Ebm                  B
   I'll never march along
    F#
I refuse to move my feet
     G#m
to a murderous song


Refrain 2:
Ebm--C#-Ebm
           They'll send you
B                  Bbm
off in a spotlight holding a weapon
Ebm--C#-Ebm
           Wasted youth
B                       Bbm
  made believe it's the best decision
B        Bb           Ebm
Don't go anywhere for war but
  C#       B         Bb         G#m-Ebm-G#m--
a cemetery everybody gets buried


Chorus 1:
F# G#m   Ebm      B
We could have an election
F#         G#m
  But I'm afraid it
      Ebm    B
won't do any good
             F#    G#m
We've got to push start
Ebm         B
pushing the buttons
F#       G#m        Ebm      B
  Or Mr. Push won't pull any weight
(Repeat)


Bridge:
Ebm       E
any weight
Ebm            E
pull any weight


Guitar Solo: Ebm--F#-Bb/D- x2


Verse 3:
Ebm             F#
  They need you oh
Bb/D          Ebm
They need you oh
              F# Bb/D
They need you oh
B        Bb           Ebm
Don't go anywhere for war but
  C#
a cemetery and
B          Bb
I won't go anywhere for
Ebm      C#
war is a cemetery
B        Bb           Ebm
Don't go anywhere for war but
  C#       B         Bb
a cemetery everybody gets buried


Chorus 2:
We could have an election
But I'm afraid it
won't do any good
             F#    G#m
We've got to push start
Ebm         B
pushing the buttons
F#       G#m        Ebm      B
  Or Mr. Push won't pull any weight
F# G#m   Ebm      B
We could have an election
F#         G#m
  But I'm afraid it
      Ebm    B
won't do any good
             F#    G#m
We've got to push start
Ebm         B
pushing the buttons
F#       G#m        Ebm      B
  Or Mr. Push won't pull any weight


Outro: Ebm--E--

Ebm            E Ebm(hold)
pull any weight

______________________________________

3.) Dead End Love

Key: Eb or F#

Tuning: Standard EADGBe

Chords used:
Eb -  x68886
C# -  x46664
B -   x24442
F# -  244322
G#m - 466444
Bb -  x13331
Ebm - x68876


Intro: Eb--C#--B--C#-- x2

Guitar 2: at 2nd enter of intro
                        Eb
e|-------------------------------------------------|
B|-------------------------------------------------|
G|-12-12-12-12-12-12-12-12-12-12-12-12-15-15-15-15-|
D|--x--x--x--x--x--x--x--x--x--x--x--x--x--x--x--x-|
A|-10-10-10-10-10-10-10-10-10-10-10-10-13-13-13-13-|
E|-------------------------------------------------|

                        C#
e|-------------------------------------------------|
B|-------------------------------------------------|
G|-10-10-10-10-10-10-10-10-10-10-10-10-13-13-13-13-|
D|--x--x--x--x--x--x--x--x--x--x--x--x--x--x--x--x-|
A|--8--8--8--8--8--8--8--8--8--8--8--8-11-11-11-11-|
E|-------------------------------------------------|

                   B
e|-------------------------------------|
B|-------------------------------------|
G|-8-8-8-8-8-8-8-8-8-8-8-8-11-11-11-11-|
D|-x-x-x-x-x-x-x-x-x-x-x-x--x--x--x--x-|
A|-6-6-6-6-6-6-6-6-6-6-6-6--9--9--9--9-|
E|-------------------------------------|

                     C#
e|-----------------------------------------|
B|-----------------------------------------|
G|-10-10-10-10-10-10-10-10-6-6-6-6-6-6-6-6-|
D|--x--x--x--x--x--x--x--x-x-x-x-x-x-x-x-x-|
A|--8--8--8--8--8--8--8--8-4-4-4-4-4-4-4-4-|
E|-----------------------------------------|


Verse 1:
Eb                   C#                    B
  While you skip the night, I stay up till 5
             C#                 Eb
We may meet again when semester ends
               C#                   B
So with all my might, I sit down to write
                   C#
Here lies precious pen failure to the end


Chorus 1:
Ebm B
     And while you were gone I let
   F#        C#       B G#m
my sores out bleeding o-pen
Ebm B
     I was cold I was sold I met
  F#        C#      B G#m
a road sign leading nowhere
Ebm B
     Doublecrossed and erased I
      F#      C#     B G#m
let a monster run me o-ver
Ebm B
     I was lost don't know where there
      F#        C#      B G#m
was a road-sign leading nowhere


Interlude: Bb-Eb-Bb-Eb-Bb-Eb-


Verse 2:
Eb                C#
  When I got hypnotized
               B
recounted only lies
              C#
Only fooled myself
              Eb
kept unsafe in hell
                   C#
I can't blame the scarecrows
              B
I get sad for nothing
             C#
Introduce me to something
         Eb--
that can move


Chorus 2:
Ebm B
     And while you were gone I let
   F#        C#       B G#m
my sores out bleeding o-pen
Ebm B
     I was cold I was sold I met
  F#        C#      B G#m
a road sign leading nowhere
Ebm B
     Doublecrossed and erased I
      F#      C#     B G#m
let a monster run me o-ver
Ebm B
     I was lost don't know where there
      F#        C#      F# B
was a road-sign left me no-where


Interlude: Eb--
Come on!!!

Guitar Solo: Ebm-B--F#-C#-B-G#m--|
Ebm-B--F#-C#-F#-B----------------|
Ebm-B--F#-C#-G#m-----------------|
Bb-Eb-Bb-Eb-Bb-Eb----------------| x2


Guitar 2: Solo
     Ebm               B                  F#        C#        B       G#m
e|---------|-------------------------|---------|---------|---------|-2-2-2-2-|
B|-4-4-4-2-|-4-4-4-2-4-4-4-4-4-4-4-4-|---------|-4-4-4-4-|-------0-|---------|
G|---------|-------------------------|-3-3-3-3-|---------|-1-1-1---|---------|
D|---------|-------------------------|---------|---------|---------|---------|
A|---------|-------------------------|---------|---------|---------|---------|
E|---------|-------------------------|---------|---------|---------|---------|

   Ebm       B          F#        C#      F#     B
e|-----|------------|---------|--------|-------|----|
B|-----|------------|-6h7p6---|------6-|-------|----|
G|-8---|-10--11--13-|-------6-|-8--8---|-8-6---|----|
D|-x---|--x---x--x--|---------|--------|-----9-|--8-|
A|-6---|--8---9--11-|---------|--------|-------|----|
E|-----|------------|---------|--------|-------|----|

      Ebm                        B
e|-11-11-11-11-|-------------------------------------|
B|-------------|-11-11-11-11-------------------------|
G|-------------|-------------11-11-11-11-------------|
D|-------------|-------------------------11-11-11-11-|
A|-------------|-------------------------------------|
E|-------------|-------------------------------------|

       F#            C#                 G#m
e|-11-11-11-11-|-18-18-18-18-|-14-14-14-14-------------|
B|-------------|-------------|-------------14-14-14-14-|
G|-------------|-------------|-------------------------|
D|-------------|-------------|-------------------------|
A|-------------|-------------|-------------------------|
E|-------------|-------------|-------------------------|

     Bb      Eb      Bb      Eb    Bb    Eb
e|-------|-------|-------|-------|-----|-----|
B|-------|-------|-------|-------|-----|-----|
G|-------|-8-8-8-|-------|-8-8-8-|-----|-8-8-|
D|-8-8-8-|-8-8-8-|-8-8-8-|-8-8-8-|-8-8-|-8-8-| x2
A|-8-8-8-|-6-6-6-|-8-8-8-|-6-6-6-|-8-8-|-6-6-|
E|-6-6-6-|-------|-6-6-6-|-------|-6-6-|-----|


(Repeat Chorus 1)


Outro:
F#        C#      B  G#m
road-sign leading no-where
F#        C#      B  G#m  B(hold)
road-sign leading no-where

__________________________________________

4.) Prescription

Key: A

Tuning: Drop D

Chords used: Drop D Only
F# - 444xxx
D -  000xxx
E -  222xxx
B -  999xxx
G -  555xxx
A -  777xxx
F -  333xxx

Chords used: in Standard EADGBe
F# - 244222
D -  xx0232
E -  022100
B -  x24442
G -  320033
A -  x02220
F -  133211


Intro: F#--D--E--B-- x4

Guitar 2:
       F#           D          E         B
e|-------------|---------|----------|---------|
B|-11-11-12-11-|-7-7-8-7-|-9-9-10-9-|-4-4-5-4-|
G|-11-11-11-11-|-7-7-7-7-|-9-9--9-9-|-4-4-4-4-|
D|-11-11-11-11-|-7-7-7-7-|-9-9--9-9-|-4-4-4-4-| x4
A|--9--9--9--9-|-5-5-5-5-|-7-7--7-7-|-2-2-2-2-|
D|-------------|---------|----------|---------|
       x2          x2         x2         x2


Go!
Alright!


Verse 1:
F#            D
  We walk it straight and narrow
E              B
  We take this path straight to hell
F#          D
  We want a quick solution
E           B
  We put ourselves inside a pill
F#         D         E
  Damnation,salvation can't
      B
see a difference anyway
F#          D        E
  We get so medicated that
         B
we don't even care


Chorus 1:
D                 F#     B
  We've got to be put to rest
D             F#      B    A
  After we're born to death
F#       A E             G
  You see  I just met you
D
  And now I'm trying to forget you


Interlude: F#--D--E--B--


Verse 2:
F#         D
  I get so disconnected
E           B
  I lose my love everyday
F#          D
  I lose it on the street and
E               B
  Freak out well and I
don't know what to say
F#
  I don't know I don't
D
know what to say
 E
I don't know
      B
where to begin
  F#     D       E
I know I don't belong
(out of the law)


Chorus 2:
D                 F#     B
  We've got to be put to rest
D             F#       B
  After we're born too death
D         F#      B
  Gravity makes a sound
D
  Pills mean


Bridge:
F#          A E           G
  so get ill  get infected
D
  No sweat just give
us injections
F#        A E          G
  You feel  sentimental
D
  Deleted memory
nothing special
F#       A E             G
  You see  I just met you
D
  And now I'm trying
to forget you
F#        A
  Fuck you I'm
E            G
temperamental
D
Self defense
   F          F#(hold)
is fundamental


Outro:
We fight to feel alright
We fight to feel alright
F#          D      E    B
We fight to feel alright
F#          D      E    B
We fight to feel alright
F#          D      E    B
We fight to feel alright
F#          D      E    B
We fight to feel alright
F#          D      E    B
We fight to feel alright
F#          D      E    B
We fight to feel alright
F#          D        E     B F#(hold)
We fight to feel, we fight!

______________________________________

5.) Underground

Key: Eb

Tuning: Standard EADGBe

Chords used:
Cm -   x35543
Eb -   x68886
G# -   466544
Eb/G - 365xxx
Bb -   x13331
Gm -   355333
Fm -   133111


Intro: Cm-- x6

Guitar 2:
e|---------------------3---4---1-|
B|-----3---4---3-----------------|
G|-------------------------------|
D|-------------------------------| x2
A|-3-3---3---3---3-3-3---3---3---|
E|-------------------------------|

Guitar 3:
e|-----------------------------|
B|-----------------------------|
G|-5-5-5-5-5-5-5-5-------------|
D|-5-5-5-5-5-5-5-5-------------| x4
A|-3-3-3-3-3-3-3-3-6-3-6-3-----|
E|-------------------------3-4-|


Verse 1:
          Cm
You won't realize I'm venomous
       Eb
You'll fall ill after hearing this
        Cm
I can't think straight
I'll mix you up
   G#        Gm
No recipe no formula
           Cm
I'm like a chain-saw I'll spit and sing
    Eb
The words that cut you limb from limb
    Cm                  G#        Bb  Eb/G
Cut out of a pattern to nothing familiar


Chorus:
Cm G#     Cm     Eb     Fm  Cm
  I  went out to find a funeral
  G#    Gm   G#    Bb
No  one died I was waiting
Cm    G#     Cm   Eb      Fm    Cm
  None  will rise dawn is beautiful
  G#   Gm     G#     Bb
Un--derground I will haunt you


Interlude: Cm--Cm--Cm--Cm-- x2

Tom:
e|---------------------------------|
B|---------------------------------|
G|---------------------------------|
D|-----6-5-----5-3-----3-1-----0-1-| x4
A|-3-3-----3-3-----3-3-----3-3-----|
E|---------------------------------|

Theo:
e|---------------------------------|
B|-----1---------------------------|
G|-------3-----3-1-----1-0-----0---|
D|-------------------------------1-| x2
A|-3-3-----3-3-----3-3-----3-3-----|
E|---------------------------------|


Verse 2:
          Cm
Well it's easy to be with this
     Eb
Just take some notes we'll take a piss
           Cm
On all the shit that sounds so typical
      G#                   Gm
We're fully automatic and we will
            Cm
kill When amnesia sets in again
   Eb
Forget yourself remember
          Cm
this that We are so special
      G#          Bb
We're nothing for real


Guitar 2: in "when amnesia"
e|----15----------16-14-------|
B|-13----16-16-13-------16-16-|
G|----------------------------|
D|----------------------------| x16
A|----------------------------|
E|----------------------------|


(Repeat chorus)


Guitar Solo 1: Very fast sweping!!!
Cm-Eb-Bb-G#- x4


Interlude: Cm--Cm--Cm--Cm-- x2
Tom:
e|---------------------------------|
B|---------------------------------|
G|---------------------------------|
D|-----6-5-----5-3-----3-1-----0-1-| x4
A|-3-3-----3-3-----3-3-----3-3-----|
E|---------------------------------|

Theo:
e|---------------------------------|
B|-----1---------------------------|
G|-------3-----3-1-----1-0-----0---|
D|-------------------------------1-| x2
A|-3-3-----3-3-----3-3-----3-3-----|
E|---------------------------------|


Breakdown: Cm-Gm-Cm-Bb-- x4

Guitar Solo 2: Cm-Gm-Cm-Bb- x2, Cm-Gm-Cm-Fm-Cm-Gm-Cm-Eb(hold)


(Repeat Chorus twice)


Outro: Tom Thacker Screams!!!
Cm-Eb-Bb-G#- x8, Cm(metallic riff) x8

_______________________________________________________

6.) Still Feel Nothing

Key: B

Tuning: Standard EADGBe

Chords used:
G#m - 466444
Eb -  x68886
C#m - x46654
F# -  244322
B -   x24442
E -   022100


Intro: G#m--Eb-- x4


Verse 1:
       G#m
I pour salt in your wounds
    Eb
and you don't even flinch
  G#m
I sharpen my nails to
Eb
give you a pinch
   G#m
My pulse is undetectable
Eb
yours is even worse
          G#m
You're so dead I can't move
        Eb
you not even with a hearse


Refrain 1:
G#m                  Eb
   And you know I'll wait
G#m           Eb  G#m-Eb x2
   for you in vain


Verse 2:
   G#m
An excuse for a master
    Eb
I'm sweating like a slave
    G#m
You won't let me have it
      Eb
the reaction I crave
     G#m
In a sickening epiphany I
Eb
learn that it's reversed
        G#m
I'm all black and blue
    Eb
and hollering cursed


Refrain 2:
G#m                  Eb
   And you know I'll wait
G#m           Eb
   for you in vain


Chorus 1:
  G#m              C#m
I undress you with flames
    F#       B
and gut you awake
       G#m          C#m
Take a piss on your grave
        F#               B
and you would still feel nothing
        G#m           C#m
I could kill you with pain
    F#        B
and without a painkiller
G#m       C#m
Toss you away and you
F#               B
would still feel nothing


Interlude: Eb--E--G#m--Eb--G#m--Eb--


Verse 3:
       G#m
Take a walk to the wishing
     Eb
well get yourself a drink
G#m
Drowning yourself it's
Eb
not what you think
      G#m
Get a hold on the tentacles
Eb
tearing you apart
        G#m
Like a splintered stake through
     Eb
your un-slept heart


Refrain 3
        G#m       Eb       G#m
And you know I'll wait for you
  Eb       G#m    Eb       G#m Eb
always for you in vain for you


Chorus 2:
  G#m             C#m
I caress you with flames
    F#       B
and gut you awake
       G#m          C#m
Take a piss on your grave
        F#               B
and you would still feel nothing
        G#m           C#m
I could kill you with pain
    F#        B
and without a painkiller
G#m       C#m
Toss you away and you
F#               B
would still feel nothing


Guitar Solo:
Eb--E--Eb-E-F#-C#m-Eb--E--G#m--F#--Eb--E--G#m--F#


Interlude: G#m--Eb-- x2


(Repeat Chorus 2)


Outro: Eb--E--Eb--E--Eb(hold)

____________________________________________

7.) Banshee Song

Key: Eb

Tuning: Standard EADGBe

Chords used:
Eb -   x68886
Bb/D - x587xx
Cm -   x35543
G -    320033
G# -   466544
G/B -  x2x033
Fm -   133111
Bb -   x13331
C# -   x46664


Intro: Eb--


Verse 1:
Eb               Bb/D
  I turn out the light
Cm                G/B
  And lay here in wait
                 G#
with half-closed eyes
                Fm
You would scare most
with your presence
G#             Fm
  It's your complexion if
that's what it's called
Eb           Bb/D
  Opaque and white
Cm                 G
  You float in the doorway
             G#
float in the night
               Fm
Your hands are ice
I would bet on it
G#                 Fm
  The room gets so cold
after you come around


Refrain:
G#
  I am ever waiting
you are out there wailing


Chorus 1:
Eb                            Bb
Love please come and haunt me always
     Cm                       G G# G Fm G# G Bb
I'll let you come and take me on
Eb                             Bb
Love come taunt me through the whole night
  Cm                         G  G# G Fm G# G Bb
I need to, need to feel your soul


Verse 2:
Eb                Bb/D
  Can I see you tonight?
Cm                  G/B
  You leave with a start
               G#
when I open my eyes
           Fm
You get so shy if
I look at you
G#                 Fm
  Why come back to me if you
won't let me see you
Eb             Bb/D
  Don't make a sound
Cm              G
  If I close my eyes
                 G#
when you're not around
                Fm
I hear the same haunting melody
G#             Fm
  I know it by heart your banshee song


(Repeat Refrain and Chorus 1)


Bridge:
G# G Eb   G#        Bb
        I left your living room
G# G Eb   G#       Bb
        I left you live alone
G# G Eb   G#                Eb--
        I left you live and roam


Interlude: Eb--Bb--Cm--Bb--
G#--


(Repeat Refrain and Chorus 1)


Guitar Solo: Eb--Bb--Cm--G--G#--B-Bb-

Guitar 2: Solo
            Eb                       Bb                       Cm
e|------------------------|------------------------|------------------------|
B|------------------4p3h4-|------------------3p1h3-|------------------1---1-|
G|--------0--0h1h3--------|------------------------|---------------0----3---|
D|-1--1h3-----------------|--------0--0h1h3--------|------0-1--1h3----------|
A|------------------------|-1--1h3-----------------|-3--3-------------------|
E|------------------------|------------------------|------------------------|

               G                        G#
e|---------------------------|------------------------|
B|---------------------------|-1--1-------------------|
G|------------------3p1h3--1-|-------3--1--0--0--1--3-|
D|---------------0-----------|------------------------|
A|--------1--1h3-------------|------------------------|
E|-3--3h4--------------------|------------------------|

          B                 Bb
e|-----------------|-----------------|
B|-4p2-------------|-3p1-------------|
G|-----4p3---------|-----3p2---------|
D|---------4p3-----|---------3p2-----|
A|-------------4p2-|-------------3p1-|
E|-----------------|-----------------|


Chorus 2:
Eb                            Bb
Love please come and haunt me always
     Cm                       G# B--Bb--Eb(hold)
I'll let you come and take me on

__________________________________________________

8.) 18

Key: E

Tuning: Standard EADGBe

Chords used:
C#m -  x46654
B -    x24442
A -    x02220
E -    022100
G#m -  466444
F#m -  244222
D -    xx0232
G# -   466544
E/G# - 476xxx


Intro: C#m--A-E-A-C#m-A-E-D-A-B

Guitar 2:
e|-9--7--9--4---4---|
B|------------5---5-|
G|------------------|
D|------------------| x5
A|------------------|
E|------------------|


Verse 1:
E                     A
  I stood by somebody else
                    E
and then I stood by you
                   A
I couldn't move my legs
                      C#m
I didn't know what to do
                   G#m
I fail to find the words
                 A
I try hard to be cool
                   B
I die to hear your voice it's
smoothly ringing in the room


Verse 2:
E                               A
  I see you're a surgeon in the looks
                               E
what could you possibly see in me
                 A
I lost the job I had who picked
                       C#m
me up when I'm more in doubt
                             G#m
You know I'll let you cut me up
                          A
I know you hate to see me bleed
                      B
Is it the color of my blood
or me in the complete?


Chorus 1:
A         E/G#           B
  18 They had it out for us
        F#m              A
We were always set for a fall
          E/G# B          F#m
You saved 197--9 to me it was
               A
the end of the world
            G#m
Yeah right, we're
           B
safe we're cool
           D
I know you always wanted more
G#
  Pick me we're so
      A
clean we'll wake
            B
up when the worst is over


Interlude: A--C#m-A-E-D-A-B


Verse 3:
E                           A
  Did I tell you I was premature?
                      E
I'm not fit to follow rules
                     A
I always fuck things up I guess
                            C#m
that makes life more interesting
                     G#m
You think that I'm absurd
                    A
well certainly with you
                  B
I am absolutely assured
I am ill conceived


(Repeat Chorus 1)


Interlude: A-C#m-A-C#m-A-C#m-A-C#m

Guitar 2:
e|---4--------4-----|
B|-----5--------5---|
G|-------4--------6-|
D|------------------| x4
A|-0--------4-------|
E|------------------|

Guitar 3:
e|------11-12------9-|
B|-12---------12-----|
G|----9----------9---|
D|-------------------| x4
A|-------------------|
E|-------------------|


Bridge:
C#m                         G#m
  There is always something wrong
                     A
but I need to see it through
I don't mean to be obsessed
                    C#m
I don't need to be amused
                       G#m
I can't stand to be a stain
                   A
that needs to be removed
                  B
If I sacrificed myself then
    (hold)
I'd know I never knew you


Chorus 2:
A         E/G#           B
  18 They had it out for us
        F#m              A
We were always set for a fall
          E/G# B          F#m
You saved 197--9 to me it was
               A
the end of the world
            G#m
Yeah right, we're
           B
safe we're cool
           F#m
I know you always
          A
there for fall
G#m              B   F#m
always there for fall


Chorus 3:
A         E/G#           B F#m
  18 They had it out for us
A         E/G#           B F#m
  18 They had it out for us
           D
I know you always wanting more
G#                       A
  Pick me we're so clean we'll
                 B
wake up when the worst is over
G#                       A
  Take me steering wheel to the
                B
cliff now we're going over
G#                       A
  Kiss me kiss and bleed we'll
                B(hold)
wake up now the worst is over


Outro:
A--C#m-G#(hold)

Guitar 2:
e|---4----------7----4-----------------|
B|-----5------5--------5---5---7-5-4---|
G|-------4---------------4---4---------|
D|-----------------------------------6-|
A|-0--------0------0-----------------6-|
E|-----------------------------------4-|

______________________________________________

9.) About My Summer

Key: C#

Tuning: Standard EADGBe

Chords used:
Bbm - x13321
B -   x24442
G -   320033
G# -  466544
F# -  244322
A -   x02220
Fm -  133311
Ebm - x68876


Intro:

Guitar 2:
e|-----6-------6---|
B|-6-7---7-6-7---7-|
G|-----------------|
D|-----------------| x4
A|-----------------|
E|-----------------|


Then Bbm--B-F#-G#--G#--A-Ebm-F#-


Verse 1:
  Bbm
I took a walk in the park
           B       F#   G#
the bluest blue in the sky
Until my legs gave out I
         A      Ebm F#
sat on a bridge and died
         Bbm
And when they covered my eyes
               B    F# G#
there wasn't a soul to save
And then they started to laugh
             A    Ebm F#
it had to be done a---gain

Guitar 2: in "again", tr means tremolo effects
e|-4-tr--
B|-------|
G|-------|
D|-------|
A|-------|
E|-------|


Chorus 1:
  Bbm           B     F# G#
I know it's the price I  pay
You can't feel a heat
           A     Ebm F#
that's 200 miles a---way
     Bbm
I'm alone it was my
B      F#  G#
choice to stay
And stare in an empty
          A  Ebm Fm F#
mirror at yester-day


Interlude: F#--

Guitar 2:
e|----------6-|
B|-9--7--6----|
G|------------|
D|------------|
A|------------|
E|------------|


Verse 2:
       Bbm
I went into a void you
         B    F# G#
were the void a  maze
If I could keep to myself
         A   Ebm    F#
it keeps me alive untouched
         Bbm
I wear a permanent frown
         B    F#  G#
nervous about my  fate
If it's a million to one
                 A    Ebm  F#
I can't hold you down that way

Guitar 2: in "void a maze"
e|-------13----|
B|----14----14-|
G|-13----------|
D|-------------|
A|-------------|
E|-------------|

in i wear a permanent frown"
e|---2-1---2-1--2-1--------------2-1-------------|
B|-----------------------------------------------|
G|-3-----3-----1----1-3-1---1--1-----1-3-1---1---|
D|------------------------4----------------4---4-|
A|-----------------------------------------------|
E|-----------------------------------------------|


Chorus 2:
  Bbm           B     F# G#
I know it's the price I  pay
You can't feel a heat
           A     Ebm F#
that's 200 miles a---way
     Bbm
I'm alone it was my
B      F#  G#
choice to stay
Here an abandoned
          A    Ebm Fm  F#
minefield that you made


Interlude: Bbm---- x4
F#-Fm-Ebm-F#-Fm-

Tom:
               Bbm
e|---------------------------------|
B|---------------------------------|
G|---------------------------------|
D|-------------------------4---4---| x8
A|---1---1---1---1---1---1---1---1-|
E|-4---4---4---4---4---4-----------|


Theo: Bbm x2
e|-----------------------------------------------------------------|
B|-6-7-6-7-6-7-6-7-6-7-6-7-6-7-6-7-4-6-4-6-4-6-4-6-4-6-4-6-4-6-4-6-|
G|-----------------------------------------------------------------|
D|-----------------------------------------------------------------|
A|-----------------------------------------------------------------|
E|-----------------------------------------------------------------|

e|-8---8---8---8---8---8---8---8---9---9---9---9---9---9---9---9---|
B|-----------------------------------------------------------------|
G|---8---8---8---8---8---8---8---8---------------------------------|
D|-----------------------------------8---8---8---8---8---8---8---8-|
A|-----------------------------------------------------------------|
E|-----------------------------------------------------------------|


(Repeat Chorus 1)
(Repeat Chorus 2)


Outro: Bbm---- x16

Tom:
               Bbm
e|---------------------------------|
B|---------------------------------|
G|---------------------------------|
D|-------------------------4---4---| x12
A|---1---1---1---1---1---1---1---1-|
E|-4---4---4---4---4---4-----------|


Theo: Bbm x2
e|-----------------------------------------------------------------|
B|-6-7-6-7-6-7-6-7-6-7-6-7-6-7-6-7-4-6-4-6-4-6-4-6-4-6-4-6-4-6-4-6-|
G|-----------------------------------------------------------------|
D|-----------------------------------------------------------------|
A|-----------------------------------------------------------------|
E|-----------------------------------------------------------------|

e|-8---8---8---8---8---8---8---8---9---9---9---9---9---9---9---9---|
B|-----------------------------------------------------------------|
G|---8---8---8---8---8---8---8---8---------------------------------|
D|-----------------------------------8---8---8---8---8---8---8---8-|
A|-----------------------------------------------------------------|
E|-----------------------------------------------------------------|

e|-----------------------------------------------------------------|
B|-6-7-6-7-6-7-6-7-6-7-6-7-6-7-6-7-4-6-4-6-4-6-4-6-4-6-4-6-4-6-4-6-|
G|-----------------------------------------------------------------|
D|-----------------------------------------------------------------|
A|-----------------------------------------------------------------|
E|-----------------------------------------------------------------|

e|-8---8---8---8---8---8---8---8---9---9---9---9---9---9---9---9---|
B|-----------------------------------------------------------------|
G|---8---8---8---8---8---8---8---8---------------------------------|
D|-----------------------------------8---8---8---8---8---8---8---8-|
A|-----------------------------------------------------------------|
E|-----------------------------------------------------------------|

e|-----------------------------------------------------------------|
B|-6-7-6-7-6-7-6-7-6-7-6-7-6-7-6-7-4-6-4-6-4-6-4-6-4-6-4-6-4-6-4-6-|
G|-----------------------------------------------------------------|
D|-----------------------------------------------------------------|
A|-----------------------------------------------------------------|
E|-----------------------------------------------------------------|

e|-----------------------------------------------------------------|
B|-2-4-2-4-2-4-2-4-2-4-2-4-2-4-2-4---------------------------------|
G|---------------------------------3-5-3-5-3-5-3-5-3-5-3-5-3-5-3-5-|
D|-----------------------------------------------------------------|
A|-----------------------------------------------------------------|
E|-----------------------------------------------------------------|

e|-----------------------------------------------------------------|
B|-6-7-6-7-6-7-6-7-6-7-6-7-6-7-6-7-4-6-4-6-4-6-4-6-4-6-4-6-4-6-4-6-|
G|-----------------------------------------------------------------|
D|-----------------------------------------------------------------|
A|-----------------------------------------------------------------|
E|-----------------------------------------------------------------|

e|-----------------------------------------------------------------|
B|-2-4-2-4-2-4-2-4-2-4-2-4-2-4-2-4---------------------------------|
G|---------------------------------3-5-3-5-3-5-3-5-3-5-3-5-3-5-3-5-|
D|-----------------------------------------------------------------|
A|-----------------------------------------------------------------|
E|-----------------------------------------------------------------|

______________________________________________

10.) Face The Ashes

Key: C

Tuning: Drop D

Chords used: Drop D Only
F -  333xxx
G -  555xxx
Am - 777xxx
C -  x355xx
Dm - 000xxx
Bb - 888xxx
A -  777xxx
Eb - 111xxx
G# - 666xxx


Chords used: in Standard EADGBe
F -  133211
G -  320003
Am - x02210
C -  x32010
Dm - xx0231
Bb - x13331
A -  x02220
Eb - x68886
G# - 466544


Intro: Drumbeats

F-Dm-Am--C-Dm-Am- x4

Guitar 2:
e|---3-----3-----3-|
B|-1---1-1---1-1---|
G|-----------------|
D|-----------------| x16
A|-----------------|
D|-----------------|


Verse 1:
F          Dm         Am
I've just erased it's been a
      F                    G
while I've got a world for sale
    F     Dm    Am
And now I walk away from it
     F             G
it's better done secret
F       Dm            Am
I never mouthed those words
     F                   G
away I wouldn't cause concern
F        Dm        Am
Die in a crossfire runaway
F             G
none of this exists
Am         Bb      A
Someone is killing me


Chorus:
G
Turn him away
F
lay over there
Eb
His limb is red
F
I have all clear
G
Settle the wave
F
I'm on my way
Eb
Dreaming of red
F            G    G# A Bb
memories are worst


Interlude: F-Dm-Am--C-Dm-Am- x2


Verse 2:
F       Dm      Am
I feel abrasive worn and tired
F                   G
don't think I could win
F       Dm   Am
Take me to a place I adore
F                G
and then seal me in
F           Dm    Am
I'm not the one I swear I'm
    F               G
not no matter how I felt
F        Dm        Am
Die in a crossfire runaway
F             G
face the ash again
Am         Bb      A
Someone is killing me


(Repeat Chorus)


Am         Bb      A
Someone is killing me


Outro: F-Dm-Am--C-Dm-Am- x4

_________________________________________

11.) Open Wounds

Key: Eb

Tuning: Standard EADGBe

Chords used:
Cm -   x35543
Bb/D - x587xx
Gm -   355333
Bb -   x13331
G# -   466544
Eb -   x68886


Intro: Cm-Bb/D-Bb-G#- x4


Verse 1:
  Cm          Bb/D   Bb          G#
I know you're good I know you're right
     Cm     Bb/D    Bb     G#
And still I wonder still I fight
  Cm       Bb/D  Bb       G#
I count my paces under my breath
  Cm       Bb/D Bb      G#     Cm Bb/D
Unconsciously I make my way to you
     Bb      G#      Cm Bb/D
With nothing left to say    I
Gm          G#        Cm
break every promise I make
    Bb/D    Bb
And when my heart beats it
G#      Cm           Bb/D
hurts before it gets better
     Bb        G#
It's gotta get worse so I nurse


Chorus:
G#     Bb           G#
  Open wounds, open minds, I
     Bb                    G#
need you to take the pain away
     Bb                Eb
I forget you and you remind me
and I miss you, I missed you


Interlude: Cm-Bb/D-Bb-G#-Cm-Bb/D-Gm-G#-


Verse 2:
       Cm                Bb/D
Didn't know that I could feel
       Bb           G#
didn't know I could fall
  Cm             Bb/D
I want to take a minute
    Bb      G#
and look at you
    Cm       Bb/D
The precious way you
Bb         G#
carry your head
        Cm      Bb
I won't take my eyes
     Gm   G#
off you until I'm dead


(Repeat Chorus twice)


Bridge:
Cm        Gm           G#
  I watch you hold you tight
          Bb
Feel your heart beat
Gm       Cm
hear you sigh
           Gm
Before you go close
     G#          Bb--
your eyes make a wish


(Repeat Chorus twice)


Outro:
G#      Bb
  and I miss you, I missed you oh
G#      Bb                       Cm Gm G# Bb--
  and I miss you, I missed you oh


Cm-Bb/D-Bb-G#- x4

________________________________________

12.) Wake Up

Key: C#

Tuning: Standard EADGBe

Chords used:
F# -  244322
C# -  x46664
Bbm - x13321
G# -  466544


Intro:

Drumbeats

F#--C#-G#- x2


Verse 1:
F#
  Hey mom, concerned
with what I've become
C#              G#
  Suicidal maybe, satanic maybe
F#
  On drugs, on off and back on
C#               G#
  I'm an enigma, I'm pissed
off at everything and
F#
  Everyone thinks that
I'm headstrong
C#
  I've been too hard on you far
G#
  too many times for us to
F#
  Go back, forget what's
said and what's done
C#                     G#
  I can't help myself I  just
need to shake myself and


Chorus:
F#
  Wake up, hug kiss and make up
C#
Tell you that I'm sorry
    G#
and that you shouldn't
           F#
Worry about  this stuff
C#
Tell you that I'm sorry
    G#
and that you shouldn't
Worry about


Interlude: F#--C#-G#-


Verse 2:
F#
  Hey love don't let me down
C#
  You know I'm lost when
G#
you are not around
F#
  You tell me lies
and put me on
C#
  You make me mad enough
   G#
to kill you in song
F#
  And I say words
things that I regret
C#
  I get so clumsy when I'm
      G#
scared  I try to walk away but
F#
  I look back remember
where I belong
C#                     G#
  I can't help myself I  just
need to kick myself and


(Repeat Chorus)


Guitar Solo: F#--Bbm-- x2, F#--G#--

Guitar 2: Solo
e|-4-4-4-4-2-2-2-2-1-1-1-1---------|
B|-------------------------2-2-2-2-|
G|---------------------------------|
D|---------------------------------| x10
A|---------------------------------|
E|---------------------------------|

e|---------------------------------|
B|-4-4-4-4-4-4-4-4-4-4-4-4-4-4-4-4-|
G|---------------------------------|
D|---------------------------------|
A|---------------------------------|
E|---------------------------------|


(Repeat Chorus twice)


Outro: F#--C#--C#(hold)

____________________________________________

13.) Embitter Me Sweet

Key: Eb

Tuning: Standard EADGBe

Chords used:
G# - 466544
Eb - x68886
C# - x46664
Cm - x35543
Fm - 133111


Intro:
                G#                                Eb
e|--------------------------------|-------------------------------|
B|--------------------------------|-------------------------------|
G|--------------------------------|-------------------------------|
D|-----5-------5------5-------3-5-|-----5------5------5-------3-5-| x2
A|------------------------6-------|-6-6----6-6----6-6---6-6-6-----|
E|-4-4-----4-4----4-4---4---4-----|-------------------------------|


Verse 1:
G#
  Come over come and pull me on
Eb
  I'll come and I can't complement you
G#
  And let you digging to yourself
Eb
  I'll never, never forget you


Refrain 1:
G#     Cm
  Come out from hiding
Fm     G#
  Come back to haunt me
Fm     Cm            Fm
  I'll let you put me  down


Guitar 2: Refrain
        G#             Cm             Fm             G#
e|--------------|--------------|--------------|--------------|
B|--------------|-----3------4-|--------------|------------4-|
G|-----3------5-|--------------|-----0------3-|--------------|
D|--------------|--------------|--------------|-----6--------|
A|--------------|-3-3----3-3---|--------------|--------------|
E|-4-4----4-4---|--------------|-1-1----1-1---|-4-4----4-4---|

        G#             Cm             Fm
e|--------------|--------------|------------1-|
B|--------------|-----3------4-|-----3--------|
G|-----3------5-|--------------|--------------|
D|--------------|--------------|--------------|
A|--------------|-3-3----3-3---|--------------|
E|-4-4----4-4---|--------------|-1-1----1-1---|


Interlude:

Guitar 1:
                G#                                Eb
e|--------------------------------|-------------------------------|
B|--------------------------------|-------------------------------|
G|--------------------------------|-------------------------------|
D|-----5-------5------5-------3-5-|-----5------5------5-------3-5-|
A|------------------------6-------|-6-6----6-6----6-6---6-6-6-----|
E|-4-4-----4-4----4-4---4---4-----|-------------------------------|

Guitar 2: Interlude
           G#                    Eb
e|--4----3----1--------|-4----3----1--------|
B|-----------------4---|----------------4---|
G|----3----3----3----3-|---3----3----3----3-|
D|---------------------|--------------------|
A|---------------------|--------------------|
E|---------------------|--------------------|


Verse 2:
G#
  I'm always picking you apart
Eb
  I'm leaving scratches on my heart
G#
  I look for someone else to blame
Eb
  I'm always chunking up names


Refrain 2:
G#        Cm
  Forever waiting
Fm    G#
  I'm suffocating
G#       Cm
  You're flinking
        Fm  G#
drag me down


Chorus 1:
Fm              Eb
  You stuck by slither in me
C#            Fm             G#
  Oh yeah I'm out here for a tea
Fm              Eb
  I fall down deliver and bleed
C#
  and just you're
Fm             G#
missing your attempt on
Fm                Eb
  I caught up and you begin to bleed
C#        Fm                 G#
  Oh yeah you're attached to me
Fm             Eb
  I want you embitter me sweet oh
C#            Fm          G#
  you have to treasure my pain


(Repeat Interlude)


Verse 3:
G#
  I tried to get me
inside your head
Eb
  whatever gets me
through the day
G#
  I'm always
feeling disconnect
Eb
  I'm over running away
G#
  I know I don't
deserve a thing
Eb
  I ask and
you confuse me


Refrain 3:
G#    Cm
  And soon or later
Fm       G#
  You're taking too far
G#     Cm              Fm
  You slip and drag me down
    G#
and sound familiar


(Repeat Chorus 1)


Interlude: Fm(hold)-Cm(hold)-G#(hold)- x2
Fm-Cm-G#-- x2, G#----


Breakdown: Eb
e|-3--1-----3-3-3--1-----3-3-3--1-----3-3-3--1-----3-3-|
B|-------4------------4------------4------------4------|
G|-----------------------------------------------------|
D|-----------------------------------------------------|
A|-----------------------------------------------------|
E|-----------------------------------------------------|


Chorus 2:
Fm              Eb
  You stuck by slither in me
C#            Fm             G#
  Oh yeah I'm out here for a tea
Fm              Eb
  I fall down deliver and bleed
C#
  and just you're
Fm             G#
missing your attempt on
Fm                Eb
  I caught up and you begin to bleed
C#               Fm               G#
  Oh yeah you're failing for just nothing
Fm             Eb
  I want you embitter me sweet oh
C#            Fm          G#
  you have to treasure my pain
Fm             Eb
  I want you embitter me sweet oh
C#            Fm          G#
  you have to treasure my pain
Fm             Eb
  I want you embitter me sweet oh
C#            Fm          G#
  you have to treasure my pain


Outro: Fm-Eb-C#(hold)

_____________________________________________________

14.) Girl A

Tuning: Standard EADGBe

Chords used:
Fm -  133111
C# -  x46664
Bbm - x13321
Eb -  x68886
G# -  466544
F# -  244322


Intro: Fm-C#-Eb-Bbm- x2


Verse 1:
  Fm          C#              Eb Bbm
I know that I got to lock you up
    Fm                C#
but that's no fair to me
       Eb            Bbm
you're all i want to see
   Fm               C#        Eb  Bbm
at least you left a permanent mark
 Fm          C#        Eb
Stained society is still
          Bbm
a shot to you and me


Refrain 1:
C#              Bbm
  you can do no wrong
          C#
you're disarm me with
              Bbm
your criminal charm


Interlude: Fm-C#-Eb-Bbm x2


Verse 2:
      Fm
Your stabs are moving
C#        Eb  Bbm
beautiful mind
  Fm                C#
I take you down the reno
Eb         Bbm
kill me in casino
Fm
day breaks just to
C#      Eb  Bbm
leave a shot
Fm             C#
burning as for me but
Eb            Bbm
never feel to me and you


(Repeat Refrain 1)


Chorus:
G#       Eb Bbm
Kill for you
   Fm             F#  C# Bbm F#
anything that you want
G#        Eb Bbm Fm
Bleed for you
   Fm             F#  C# Bbm F#
anything that you want


Interlude: Fm-C#-Eb-Bbm- x2


Verse 3: Tom Thacker talks
Fm         C#
  why does everybody have
    Eb          Bbm
to stop and look
       Fm       C#
at the accident victim
         Eb           Bbm
bleeding on the ground
         Fm             C#
it's the murder scene reward
  Eb                Bbm
I guess it's enough blood
        Fm            C#
and the television we watched
     Eb               Bbm
This love is soon somebody's lose


Refrain 2:
C#              Bbm
  you can do no wrong
          C#
you're disarm me with
               Bbm
your murderous charm


(Repeat Chorus twice)


Interlude: G#-Eb-B-F#- x2


Bridge:
G# Eb
   I raise you
B  F#           G#
   and wrap you up
   Eb
Forfeit you
B  F#             G#
  sticks and stew up
   Eb
forget you
B   F#        G#
  I don't get my
         Eb
you're a victim
B          C#
  you're a victim


Interlude: Fm-C#-Eb-Bbm- x2


Verse 3:
  Fm               C#         Eb Bbm
I don't know how I get caught up
Fm                 C#
Look at you that's me that
Eb                Bbm
nothing else will do


(Repeat Chorus twice)


Outro:
G#        Eb Bbm Fm
Bleed for you
F#      C# Bbm F#
aim for you

G#-Eb-Bbm-Fm-F#-C#-Bbm-F#-G#(hold)
Добавлено: 19.09.2013
Другие материалы по этой песне:
  • Аккорды и текст

Страница создана 19.09.2013
http://primanota.ru/gob/muertos-vivos-chords.htm
Привет, Гость.
Предлагаем пройти революционный курс по гитаре.
Подарок от PrimaNota.Ru, забирай!