PrimaNota.ru - самый крупный в мире бесплатный архив песенных текстов, аккордов, табулатур и нот


Gob - Ming Tran - аккорды и текст, таба, бас-таба, видео

Регистрация Запомнить меня
Войти через:  Facebook Google Twitter Vk Yandex Mail.ru

Gob - Ming Tran - аккорды и текст, таба, бас-таба, видео

Печатать
Просмотров: 221
Ming Tran
Gob
Gob
Ming Tran
Foot In Mouth Disease
2003
Submitted by: paramore_fans@yahoo.com

Key: Ab, B, C#

Tuning: Standard EADGBe

Chords used:
Fm -  133111
C# -  x46664
G# -  466544
G#m - 466444
E -   022100
F# -  244322
C#m - x46654
Bbm - x13321


Intro:

Plucking:
     Fm         C#        Fm        C#       Ab
e|---------|---------|---------|---------|---------|
B|-----1---|---------|-----1---|---------|---------|
G|---1---1-|-----5---|---1---1-|-----5---|-----5---|
D|-3-------|---6---4-|-3-------|---6---6-|---6---6-|
A|---------|-4-------|---------|-4-------|---------|
E|---------|---------|---------|---------|-4-------|
     x2         x2        x2

     Fm         C#        Fm     C#
e|---------|---------|---------|---|
B|-----1---|---------|-----1---|---|
G|---1---1-|-----5---|---1---1-|-6-|
D|-3-------|---6---4-|-3-------|-6-|
A|---------|-4-------|---------|-4-|
E|---------|---------|---------|---|
     x2         x2        x2

Distortion: G#m--E--G#m--E--F#- x2


Verse 1:
C#m        E
Flat on my face I
B           F#
see what it takes
   C#m             E
To cut through the bullshit
   B          F#
To cut to the chase
    C#m        E
and when I get up
B          F#
I won't forget
    C#m            E
the place that you left me
    B              F#
the place that you left


Chorus:
Abm         E
Better run away run away
          Abm
cause you know I can't
E            F#
wait for the next time
    Abm         E
You better run away run away
    Abm
for nothing's gonna
E            F#
save you the next time


Verse 2:
    C#m          E
And when I catch up
B          F#
it will be great
C#m        E
I'll set a trap for you
B            F#
I just can't wait
C#m          E
One of these days
B            F#
one of these days
C#m            E
My friend Ming tran will
         B            F#
kick you right in the face


(Repeat Chorus twice)


Breakdown: C#--

Guitar 2:
E|-1-1-2-2--|
B|-2-2-2-2--|
G|-1-1-1-1--|
D|-------------------| x4
A|-------------------|
E|-------------------|


Interlude: Bbm--F#--Bbm--F#-G#- x2

Guitar 2:
e|-1-1-2-2-|---------9-8---|
B|-2-2-2-2-|-9-7-6-7-----9-|
G|-1-1-1-1-|---------------|
D|---------|---------------|
A|---------|---------------|
E|---------|---------------|
     x4


Bridge:
C#m          E
One of these days
     B        F#
I'll get my revenge
C#m            E
My friend Ming tran will
         B            F#
kick you right in the face


Guitar Solo: C#m-E-B-F#- x2

Guitar 2: Solo
     C#m     E      B     F#
e|---------|---|---------|--|
B|-4-5-7---|---|-4-5-7---|--|
G|-------4-|---|-------6-|--|
D|---------|---|---------|--|
A|---------|---|---------|--|
E|---------|---|---------|--|

     C#m     E      B     F#
e|---------|---|---------|--|
B|-4-5-7---|---|-4-5-7---|--|
G|-------4-|---|-------6-|--|
D|---------|---|---------|--|
A|---------|---|---------|--|
E|---------|---|---------|--|

Guitar 3: Solo
   C#m      E      B     F#
e|-----|---------|---|---------|
B|-----|-4-5-7---|---|-4-5-7---|
G|-----|-------4-|---|-------6-|
D|-----|---------|---|---------|
A|-----|---------|---|---------|
E|-----|---------|---|---------|

   C#m      E      B   F#
e|-----|---------|---|---|
B|-----|-4-5-7---|---|---|
G|-----|-------4-|---|---|
D|-----|---------|---|---|
A|-----|---------|---|---|
E|-----|---------|---|---|


(Repeat Chorus twice)


Outro: Abm(hold)
Добавлено: 07.05.2012
Другие материалы по этой песне:

Страница создана 20.03.2012
http://primanota.ru/gob/ming-tran-chords.htm
Привет, Гость.
Предлагаем пройти революционный курс по гитаре.
Подарок от PrimaNota.Ru, забирай!