PrimaNota.ru - самый крупный в мире бесплатный архив песенных текстов, аккордов, табулатур и нот


Gob - Lemon-aid - аккорды и текст, таба, бас-таба, видео

Регистрация Запомнить меня
Войти через:  Facebook Google Twitter Vk Yandex Mail.ru

Gob - Lemon-aid - аккорды и текст, таба, бас-таба, видео

Печатать
Просмотров: 219
Уроки эстрадного вокала в Санкт-Петербурге
Lemon-aid
Gob
Gob
Lemon-Aid
Foot In Mouth Disease
2003
Submitted by: paramore_fans@yahoo.com

Key: B then C#

Tuning: Standard EADGBe

Chords used:
B -   x24442
F# -  244322
Abm - 466444
C#m - x46664
A -   x02220
E -   022100
Bbm - x13321
C# -  x46664
Ab -  466544
F# -  244322


Intro:

Drumbeats: x2, Abm-F#-Abm-F#-

B--F#--E---Abm-F#-Abm-F#- x3, B-F#-E(hold)

Guitar 2:
   B    F#     E    Abm  F# Abm F#  B   F#  E
e|----|----|-------|---|---|---|--|---|---|---|
B|----|----|-------|---|---|---|--|---|---|---|
G|-13-|----|-8-9-8-|-9-|---|---|--|-8-|-6-|-4-|
D|--x-|----|-x-x-x-|-x-|---|---|--|-x-|-x-|-x-|
A|-11-|----|-6-7-6-|-7-|---|---|--|-6-|-4-|-2-|
E|----|----|-------|---|---|---|--|---|---|---|


Verse 1:
     B           C#m
I go out cause I live 
      A     E
in an empty house
       B            C#m
And it rains and it rains 
       A      E
and it never stops
      B            C#m
I'm a case in this place 
    A     E
now mixed up with you
        B
I had a perfect fit 
  C#m     A      E
until you called me up
        B
Then it didn't even 
C#m      A   E
rain the sun came up
            B
Now there's nothing I can 
C#m    A     E
do but fish around for you


Chorus 1:
  E              B
I wanna hear you talk
      F#    E
to me every night
   E             B
If anything goes wrong 
        F#      E
you can make it right
  Abm
I never get the chance 
        B
just to let you know
        E
Let you know GO


Intelrude: B-C#m-A-E- x2

Guitar 2:
     B       C#m      A     E
e|--------|--------|------|---|
B|--------|--------|------|---|
G|-8--8-8-|-9--9-4-|-6--6-|-4-|
D|-x--x-x-|-x--x-x-|-x--x-|-x-| x2
A|-6--6-6-|-7--7-2-|-4--4-|-2-|
E|--------|--------|------|---|


Verse 2:
    B              C#m
The lemon that you aid 
        A      E
doesn't have a pulse
          B
Something that i'll never 
C#m        A     E
get if you never tell
       B            C#m
No I'd never need a phone 
       A     E
if you lived next door to me
          B
And if it feels good to 
C#m       A         E
me that's something else
         B
You're a soft-head you 
C#m         A    E
think I'm a motormouth
      B           C#m
But I never say a word 
       A     E   
that I don't hold dear to me


Chorus 2:
  E              B
I wanna hear you talk
      F#    E
to me every night
   E             B
If anything goes wrong 
        F#      E
you can make it right
  Abm
I never get the chance 
        B
just to let you know
        E
Let you know yeah know
       E              B
Yeah I wanna make you feel 
          F#    E
something every night
   E             B
If anything goes wrong 
     F#      E
I'll make it right
  Abm
I never get the chance 
        B
just to let you 
E
know Get go


Guitar Solo:
Bbm-Ab-Bbm-Ab-
C#-Ab-F#--Bbm-Ab- x2, Bbm--C#--F#--

Guitar 2: Solo, b means bend
   Bbm  Ab Bbm Ab    C#    Ab        F#
e|-----|--|---|--|-------|----|----------------|
B|-----|--|---|--|-------|----|----------------|
G|-8b--|--|---|--|-9b-9b-|-9b-|-9b--9b-8p6---6-|
D|-----|--|---|--|-------|----|------------8---|
A|-----|--|---|--|-------|----|----------------|
E|-----|--|---|--|-------|----|----------------|

   Bbm Ab Bbm  Ab     C#        Ab        F#
e|----|--|---|---|---------|---------|---------|
B|----|--|---|---|---------|---------|---------|
G|----|--|---|---|---------|-8p6-5h6-|---------|
D|----|--|-6-|---|-8p6-4h6-|---------|-8p6-4h6-| 
A|----|--|---|-4-|---------|---------|---------|
E|----|--|---|---|---------|---------|---------|

Very fast sweeping here!!!
       Bbm            C#                F#
e|-------------|-------------|-------------13-------|
B|-7p6---9p6---|-7p6---9p6---|-7--9--7--------14----|
G|-----6-----6-|-----6-----6-|----------13-------13-|
D|-------------|-------------|----------------------|
A|-------------|-------------|----------------------|
E|-------------|-------------|----------------------|
       x2             x2


Bridge:
  F#           E     Abm
I hope that it won't fuck 
                B
up now that you know
F#           E     Abm
Hope that it won't fuck 
                B
up now that you know
F#           E     Abm
Hope that it won't fuck 
                B
up now that you know
F#           E     Abm
Hope that it won't fuck 
                B
up now that you know


Guitar 2: Bridge:
e|-17--17--17--17--17--17-|
B|------------------------|
G|------------------------|
D|------------------------|
A|------------------------|
E|------------------------|


(Repeat Chorus)


Outro:
  Abm F# Abm  F#  B   F#
I wan-na make you feel
E
 (every night)
  Abm F# Abm  F#  B   F#
I wan-na make you feel
 E
(every night)
  Abm F# Abm  F#  B   F# E Abm F# Abm F# B(hold)
I wan-na make you feel
Добавлено: 01.06.2012
Другие материалы по этой песне:

Страница создана 16.03.2012
http://primanota.ru/gob/lemon-aid-chords.htm
Привет, Гость.
Предлагаем пройти революционный курс по гитаре.
Подарок от PrimaNota.Ru, забирай!