PrimaNota.ru - самый крупный в мире бесплатный архив песенных текстов, аккордов, табулатур и нот


Gob - Ive Been Up These Steps - аккорды и текст, таба, бас-таба, видео

Регистрация Запомнить меня
Войти через:  Facebook Google Twitter Vk Yandex Mail.ru

Gob - Ive Been Up These Steps - аккорды и текст, таба, бас-таба, видео

Печатать
Просмотров: 201
Ive Been Up These Steps
Gob
Gob
I've Been These Steps
Foot In Mouth Disease
2003
Submitted by: paramore_fans@yahoo.com

Key: C#

Tuning: Standard EADGBe

Chords used:
Bbm - x13321
Fm -  133111
C# -  x46664
G# -  466544
Ebm - x68876
F# -  244322


Intro: Bbm-Fm-C#-G#-Ebm-- x2


Verse 1:
           Bbm       Fm
It was the worst time
          C#
The first time
   Ab        Ebm
It ever went sour
Things fell
apart too soon
         Bbm     Fm
I was so let down
  C#
I learned then
   Ab       Ebm
To never go back
I've been once
Only once


Chorus 1:
F#           Ebm
  Never reconnect to me
F#
  It's better done
Ebm
better see whoa
F#
  Sinking so I'll
Ebm
get out alive
F#
  It could be the
Ebm
death of me Whoa


Interlude: Bbm-Fm-C#-Ab-Ebm- x2


Verse 2:
           Bbm   Fm
There's no reason
   C#
to hold on
  Ab         Ebm
I never fall down
Cause I never get dizzy
         Bbm
It might be better
Fm    C#        Ab        Ebm
  Whatever It's nothing I can't
wash my hands of anyhow


Chorus 2:
F#        C#         Ab
  Never reconnect to me
F#
  It's better done
C#     Ab
better see whoa
F#
  Sinking so I'll
C#       Ab
get out alive
F#
  It could be the
C#       Ab
death of me Whoa


Interlude: Bbm-Fm-C#-G#-Ebm-- x2


Verse 3:
        Bbm    Fm
It's so useless
   C#
So useless
    Ab         Ebm
The burn'll be there
I'm not fooling myself
        Bbm      Fm
I won't regret it
   C#
Forget it
     Ab       Ebm
I'll never go back
I'm never coming back
Bbm          Fm         C#
   I've been held (been held)
     Ab       Ebm
Held down too long
It won't hold very long
Bbm          Fm         C#
   I've been held (been held)
     Ab       Ebm
Held down too long
It's nothing that
I can't escape


(Repeat Chorus 2)


Guitar Solo: F#--Ebm-- x4

Guitar 2: Solo
         F#               Ebm              F#                Ebm
e|----------------|----------------|----------------|------------------|
B|----------------|----------------|----------------|------------------|
G|----------------|----------------|----------------|-------8--------8-|
D|----------------|----------------|----------------|-------8--------8-|
A|---------1-4--4-|-6-6-6---4-6--6-|---------1-4--4-|-6-6-6-6--6-6-6-6-|
E|-2-2-2-4--------|-------6--------|-2-2-2-4--------|------------------|

         F#               Ebm              F#               Ebm
e|----------------|----------------|----------------|-----------------|
B|----------------|----------------|----------------|-----------------|
G|----------------|----------------|----------------|-8-8-8-8-8-8-8-8-|
D|----------------|----------------|----------------|-8-8-8-8-8-8-8-8-|
A|---------1-4--4-|-6-6-6---4-6--6-|---------1-4--4-|-6-6-6-6-6-6-6-6-|
E|-2-2-2-4--------|-------6--------|-2-2-2-4--------|-----------------|


Interlude: Bbm-Fm-C#-Ab-Ebm-


Verse 4:
           Bbm       Fm
It was the worst time
          C#
The first time
   Ab        Ebm
It ever went sour
I've been once
Only once


(Repeat Chorus 2)


Chorus 3:
F#          Ebm
  Never reconnect to me
F#
  It's better done
Ebm
better see whoa
F#           Ebm
  Never reconnect to me whoa
F#
  It could be the
Ebm
death of me Whoa


Outro: Bbm-Fm-C#-Ab-Ebm(hold)
Добавлено: 30.04.2012
Другие материалы по этой песне:
  • Аккорды и текст

Страница создана 13.04.2012
http://primanota.ru/gob/ive-been-up-these-steps-chords.htm
Привет, Гость.
Предлагаем пройти революционный курс по гитаре.
Подарок от PrimaNota.Ru, забирай!