PrimaNota.ru - самый крупный в мире бесплатный архив песенных текстов, аккордов, табулатур и нот


Gob - I Hear You Calling - аккорды и текст, таба, бас-таба, видео

Регистрация Запомнить меня
Войти через:  Facebook Google Twitter Vk Yandex Mail.ru

Gob - I Hear You Calling - аккорды и текст, таба, бас-таба, видео

Печатать
Просмотров: 309
I Hear You Calling
Gob
Gob
I Hear You Calling
Submitted by: paramore_fans@yahoo.com

Key: B

Tuning: Standard EADGBe

Chords used:
B -   x24442
C#m - x46654
Abm - 466444
F# -  244322
E -   022100


Version 1: Album Version

Intro: B--C#m-G#m--E--G#m--E--G#m--E--F#-

Guitar 2:
          B         C#m       Abm              E             
E|----------------|-----|--------------|---------------|
B|----------------|-----|--------------|---------------|
G|----------------|-1---|--------------|---------------|
D|---1-4-1-4--4-1-|-----|-4--1-1---1---|-------------1-|
A|-2--------------|-----|--------4---4-|-2-2---2-2-----|
E|----------------|-----|--------------|-----4-----4---|

    Abm           E           Abm           E             F#
e|--------|----------------|--------|----------------|----------|
B|--------|----------------|--------|----------------|----------|
G|--------|----------------|--------|----------------|----------|
D|----1---|--------------1-|----1---|--------------1-|----------|
A|--4---4-|--2-2---2-2-----|--4---4-|--2-2---2-2-----|--4--4--2-|
E|--------|------4-----4---|--------|------4-----4---|----------|



Verse 1:
B
  i've seen you now about 
    C#m    Abm
the fourth time baby
        E
but you know that 
                    Abm
i've got nothing to say
       E
its so charming to look on 
     Abm           E
your face but your eyes
                     F#
inviting something i just 
            B
can't do now i've been around
           C#m  Abm
about your hood i'm looking 
        E
for you just to shine some light
      Abm            E
on my day feels like ages 
                         Abm
since i've been out your way
     E
i've been caught up with 
           F#
handful of new sensation


Chorus 1:
E          F#      C#m
i hear you calling calling for
              Abm
me out in the night but it's 
E      F#      C#m      G#m--
all bad  and i know that 


Verse 2:
B
  I've seen you now 
          C#m   Abm
about the Fifth time baby
        E
But you know that 
                    Abm
I've got nothing to say
       E
Its so charming to
             Abm
look on your face
         E
But your eyes inviting 
            F#
something i just can't do now
B
  i've been around
           C#m  Abm
about your hood i'm looking 
        E
for you just to shine some light
      Abm            E
on my day feels like ages 
                         Abm
since i've been out your way
     E
i've been caught up with 
           F#
handful of new sensation


Chorus 2:
E          F#      C#m
i hear you calling calling for
              Abm
me out in the night but it's 
E      F#     C#m      E F#
all bad and i know that


Guitar Solo:
B--C#m-G#m--E--G#m--E--G#m--E--F#- x2

Guitar 2: Solo
          B         C#m       Abm              E             
E|----------------|-----|--------------|---------------|
B|----------------|-----|--------------|---------------|
G|----------------|-1---|--------------|---------------|
D|---1-4-1-4--4-1-|-----|-4--1-1---1---|-------------1-|
A|-2--------------|-----|--------4---4-|-2-2---2-2-----|
E|----------------|-----|--------------|-----4-----4---|

    Abm           E           Abm           E             F#
e|--------|----------------|--------|----------------|----------|
B|--------|----------------|--------|----------------|----------|
G|--------|----------------|--------|----------------|----------|
D|----1---|--------------1-|----1---|--------------1-|----------|
A|--4---4-|--2-2---2-2-----|--4---4-|--2-2---2-2-----|--4--4--2-|
E|--------|------4-----4---|--------|------4-----4---|----------|

          B           C#m         Abm              E             
E|----------------|---------|--------------|---------------|
B|----------------|---------|--------------|---------------|
G|----------------|-1(bend)-|--------------|---------------|
D|---1-4-1-4--4-1-|---------|-4--4-1---1---|-------------1-|
A|-2--------------|---------|--------4---4-|-2-2---2-2-----|
E|----------------|---------|--------------|-----4-----4---|

    Abm           E           Abm           E             F#
e|--------|----------------|--------|----------------|----------|
B|--------|----------------|--------|----------------|----------|
G|--------|----------------|--------|----------------|----------|
D|----1---|--------------1-|----1---|--------------1-|----------|
A|--4---4-|--2-2---2-2-----|--4---4-|--2-2---2-2-----|--4--4--2-|
E|--------|------4-----4---|--------|------4-----4---|----------|


Chorus 3:
E          F#      C#m
i hear you calling calling for
              Abm
me out in the night but it's 
E      F#      C#m      Abm-F#-
all bad  and i know that 
(Repeat x5)


Version 2: 2005 Version


Intro: B--C#m-G#m--E--G#m--E--G#m--E--F#-

Guitar 2:
          B         C#m       Abm              E             
E|----------------|-----|--------------|---------------|
B|----------------|-----|--------------|---------------|
G|----------------|-1---|--------------|---------------|
D|---1-4-1-4--4-1-|-----|-4--1-1---1---|-------------1-|
A|-2--------------|-----|--------4---4-|-2-2---2-2-----|
E|----------------|-----|--------------|-----4-----4---|

    Abm           E           Abm           E             F#
e|--------|----------------|--------|----------------|----------|
B|--------|----------------|--------|----------------|----------|
G|--------|----------------|--------|----------------|----------|
D|----1---|--------------1-|----1---|--------------1-|----------|
A|--4---4-|--2-2---2-2-----|--4---4-|--2-2---2-2-----|--4--4--2-|
E|--------|------4-----4---|--------|------4-----4---|----------|


Verse 1:
B
  i've seen you now about 
    C#m    Abm
the fourth time baby
        E
but you know that 
                    Abm
i've got nothing to say
       E
its so charming to look on 
     Abm           E
your face but your eyes
                     F#
inviting something i just 
            B
can't do now i've been around
           C#m  Abm
about your hood i'm looking 
        E
for you just to shine some light
      Abm            E
on my day feels like ages 
                         Abm
since i've been out your way
     E
i've been caught up with 
           F#
handful of new sensation


Chorus 1:
E          F#      C#m
i hear you calling calling for
              Abm
me out in the night but it's 
E      F#      C#m      G#m--
all bad  and i know that 


Verse 2:
B
  My trip you thought I rebel
C#m  Abm
your face break my 
   E
concentration on 
               Abm
the face of my day
          E
can't you see that I'm here
            Abm
bust up for mail
       E
think about you a night
      F#
and I know it's so 
friday's gone
B
  there's a message on a 
C#m Abm
platform something
       E
That I don't wanna
           Abm
invited to read
        E
can you help me special
           Abm
up for the please
     E
I am blurring for my hand
      F#
for I can't erase it


Chorus 2:
E          F#      C#m
i hear you calling calling for
              Abm
me out in the night but it's 
E      F#      C#m      G#m--
all bad  and i know that
E          F#      C#m
i hear you calling calling for
              Abm
me out in the night but it's 
E      F#      C#m      E---
all bad  and i know that 


Bridge:
  F#          Abm
I saw your half  and 
  E               B
I thought you scar
      F#       Abm
wanna shaken up
       E             B
like a doors light up
wanna shaken up
like a doors light up
 E      F#
(want a long shot baby
        C#m
I don't wanna fluff
          E
boner pop cruising 
              B
while it captivates
  F#             G#m E--
I throw my cover now)


Verse 3:
B
  i've seen you now about 
    C#m    Abm
the fourth time baby
        E
but you know that 
                    Abm
i've got nothing to say
       E
its so charming to look on 
     Abm           E
your face but your eyes

inviting something i just 

can't do now


Chorus 3:
E          F#      C#m
i hear you calling calling for
              Abm
me out in the night but it's 
E      F#      C#m      Abm-F#-
all bad  and i know that 
(Repeat x5)
Добавлено: 27.05.2012
Другие материалы по этой песне:

Страница создана 22.02.2012
http://primanota.ru/gob/i-hear-you-calling-chords.htm
Привет, Гость.
Предлагаем пройти революционный курс по гитаре.
Подарок от PrimaNota.Ru, забирай!