PrimaNota.ru - самый крупный в мире бесплатный архив песенных текстов, аккордов, табулатур и нот


Gob - I Cut Myself, Too - аккорды и текст, видео

Регистрация Запомнить меня
Войти через:  Facebook Google Twitter Vk Yandex Mail.ru

Gob - I Cut Myself, Too - аккорды и текст, видео

Печатать
Просмотров: 122
Уроки эстрадного вокала в Санкт-Петербурге
I Cut Myself, Too
Gob
Gob
I Cut Myself Too
Foot And Mouth Disease
2003
Submitted by: paramore_fans@yahoo.com

Key: Eb, C, Bb

Tuning: Standard EADGBe

Chords used:
Eb - x68886
F -  133211
Cm - x35543
G# - 466544
Bb - x13331
C -  x32010
G -  320003
Am - x02210
F -  133211
Bb - x13331


Intro: Eb--

Guitar 2:
                      Eb
e|-------------------------------------------|
B|-------------------------------------------|
G|-8-8-8-8--10-10-10-10--12-12-12-12--15--13-|
D|-x-x-x-x---x--x--x--x---x--x--x--x---x---x-|
A|-6-6-6-6---8--8--8--8--10-10-10-10--13--11-|
E|-------------------------------------------|

Cm--G#-Bb- x4

Guitar 2:
         Cm           G#       Bb
e|-4--4-3--4--4-3-|--------|--------|
B|----------------|-4--4-4-|-6--6-6-|
G|----------------|--------|--------|
D|----------------|--------|--------| x4
A|----------------|--------|--------|
E|----------------|--------|--------|


Verse 1:
Eb        F       Cm
  Are you holding out?
        G#
Are you satisfied of
          Eb
making confessions?
    F             Cm
I'm moving on and you're
              G#
just waiting around
Eb      F        Cm
  While you were down
    G#
And looking for
           Eb
someone to follow
   F
Misunderstood I
Cm             G#
understood you well


Chorus 1:
               C         G
If it helps to ease your mind
           Am               F
You're not putting me out tonight
                    C         G
Don't you think you need some time?
        Am               F
I'm not putting you in tonight
               C         G
If it helps to ease your mind
           Am               F
You're not putting me out tonight
                    C         G
Don't you think you need some time?
        Am               F
I'm not putting you in tonight


Verse 2:
Eb       F        Cm
  And it helps to know
   G#
To know you're not alone
         Eb
your not fucked up
     F
Just waiting patient
Cm              G#
waiting for the call
Eb    F         Cm
  And just like you
        G#
Now and then I cut
          Eb
myself to pieces
       F
And it rains it pours blood
    Cm               G#
but doesn't make any sense


Chorus 2:
               C         G
If it helps to ease your mind
           Am               F
You're not putting me out tonight
                    C         G
Don't you think you need some time?
        Am               F
I'm not putting you in tonight
               C         G
If it helps to ease your mind
           Am               F
You're not putting me out tonight
                    C         G
Don't you think you need some time?
        Am
I'm not putting you in tonight


Interlude: Bb--G#-- x3

Guitar 2:
e|---------------------------------------|
B|-------6-6-4-4-4-6-6-6-----------------|
G|-3-3-3-----------------1-1-1-1-1-1-1-1-|
D|---------------------------------------| x2
A|---------------------------------------|
E|---------------------------------------|

e|-----------------------4-4-4-4-4-4-4-4-|
B|-------6-6-4-4-4-6-6-6-----------------|
G|-3-3-3---------------------------------|
D|---------------------------------------|
A|---------------------------------------|
E|---------------------------------------|


Bridge:
Eb         G#       Bb     Eb
  Now your crushing like cement
       G#        Bb      Cm
Do you find your perfect fit?
     G#       Bb       Cm
And stand out from the rest
G#       Bb      Cm  Eb(hold)
Shine on you the best


Verse 3:
Eb        F        Cm
  Well we all fall down
      G#
Is it better now or
              Eb
are you still broken?
   Bb            Cm
Im moving on and you're
               G#
still waiting around


Chorus 3:
               C         G
If it helps to ease your mind
           Am               F
You're not putting me out tonight
                    C         G
Don't you think you need some time?
        Am               F
I'm not putting you in tonight
               C         G
If it helps to ease your mind
           Am               F
You're not putting me out tonight
                    C         G
Don't you think you need some time?
        Am               Bb
I'm not putting you in tonight


Outro:
               C         G
If it helps to ease your mind
           Am               Bb
You're not putting me out tonight
               C         G
If it helps to ease your mind
           Bb
You're not putting me out
                     F(hold)
I'm putting you in tonight
Добавлено: 07.12.2013
Другие материалы по этой песне:
  • Аккорды и текст

Страница создана 23.05.2012
http://primanota.ru/gob/i-cut-myself-too-chords.htm
Привет, Гость.
Предлагаем пройти революционный курс по гитаре.
Подарок от PrimaNota.Ru, забирай!