PrimaNota.ru - самый крупный в мире бесплатный архив песенных текстов, аккордов, табулатур и нот


Gob - How Far Shallow Takes You - аккорды и текст, видео

Регистрация Запомнить меня
Войти через:  Facebook Google Twitter Vk Yandex Mail.ru

Gob - How Far Shallow Takes You - аккорды и текст, видео

Печатать
Просмотров: 81
How Far Shallow Takes You
Gob
Gob
How Far Shallow Takes You
1998 Netwerk Records
Submitted by: paramore_fans@yahoo.com

Tuning: All songs are in Standard EADGBe

Tracklist:
01. 236 E. Broadway
02. On These Days
03. Self Appointed Leader
04. Beauville
05. What To Do
06. The Mend
07. Reign On Your Parade
08. Suds
09. Nothing New
10. Burying Your Past
11. Naked
12. License From A Cereal Box
13. Stand And Deliver
14. Ok
15. Together lyrics
16. Things Happen All The Time
17. All We Are

Bonus Track:
18. Paint It Black (Rolling Stones Cover, To be tabbed soon)

_________________________________________________

1.) 236 E. Broadway

key: G#

Tuning: Standard EADGBe

Chords used:
G# - 466544
F# - 244322
Fm - 133111
C# - x46664
Eb - x68886


Intro:

Silence

Tom: Fm-- x2

Theo:
e|-----------|
B|-----------|
G|-----------|
D|-1-1-1-1-3-|
A|-----------|
E|-----------|

Craig: Bass Solo
G|-------------------------------------------------------1-1-1-3-5-|
D|-3-3-3-1-3-3-3-1-3-3-3-1-3-3-3-----------------------3-----------|
A|-------------------------------3-3-3-4-4-4---------3-------------| x4
E|-------------------------------------------4-4-4-1---------------|


Distortion:

Tom: G#-F#-Fm--G#-F#-Fm-C#- x2

Theo:
e|-----------------------------4-|
B|---------------1-1-1-1-1-2-1-4-|
G|-1-1-1-1-3-1-3-----------------|
D|-------------------------------|
A|-------------------------------|
E|-------------------------------|


Verse 1:
G#   F#       Fm
  It seems so tough
sometimes when you
G#     F#       Fm
face a day with back
        C#
to back conflict
G# F#           Fm
   When you get pushed around
    G#               F#
you might stand your ground
          Fm         C#
Might end up on your back but


Chorus 1:
Eb         C#          Fm
  When you fall do you benefit
    C#    G#
and talk about it
Eb         C#          Fm
  When you fall do you get back
             C#    G#
up with your head above you
Eb         C#
  When you fall


Verse 2:
G#  F#
  I choked back
Fm
tears last night
G#         F#
  sitting alone in a
Fm         C#
restaurant thinking
G# F#        Fm
   How did I get so
    G#
low how did
  F#        Fm
I manage to sink
       C#
to the bottom


Chorus 2:
Eb         C#          Fm
  When you fall do you benefit
    C#    G#
and talk about it
Eb         C#          Fm
  When you fall do you get back
             C#    G#
up with your head above you
Eb         C#
  When you fall
Eb         C#
  When you fall
Eb         C#  G#--F#-Fm---Fm(hold)
  When you fall

______________________________________

2.) On These Days

Key: Bb

Tuning: Standard EADGBe

Chords used:
Bb -   x13331
Fm -   133111
F -    133211
Cm -   x35543
Eb -   x68886
Gm -   355333
G# -   466544
Bb/D - x587xx


Verse 1:
Bb               Fm       Cm
  Every thing's stagnant inert
      Eb
and I feel so far away
Bb         Fm                Cm
  I've got so much more to accept
         Eb
I've got so much more to say
Bb       Fm           Cm
  I felt sullen and depressed with
        Eb     F
thing I needed off my chest
Bb        Fm                Cm
  I've go so much more to accept
         Eb
I've got so much more to say


Chorus 1:
Bb      Cm
  I was beat up by the
F
pictures in my mind
Eb Bb/D  Eb
on these days
Bb      Cm
  I saw heat and fire
F
come to take your place
Eb Bb/D  Eb
on these days
Bb               Cm
  Walked thought brilliant
            F
light on my way to see you
Eb Bb/D  Eb
on these days
Bb        Cm
  I can't move at all with
   F                Eb(hold)
my feet in quicksand


Interlude: Beat Changes from fast to Slower
Gm-G#-Eb-- x2, Gm-G#-Eb--Cm-Eb-F-- x2


Verse 2: Slower Beat
Gm G#     Eb
   If you went a
Cm      Eb     F
million miles away
Gm G#
   I would be sitting here
Cm        Eb      F
wondering what to say
Gm G# Eb              Cm
        I've seen the out come and
    Eb             F
I'm hoping that it never ends
Gm G# Eb              Cm
        I've seen the out come and
    Eb             F
I'm hoping that it never ends
Gm G# Eb              Cm
        I've seen the out come and
    Eb             F
I'm hoping that it never ends
Gm G# Eb              Cm
        I've seen the out come and
    Eb             F
I'm hoping that it never ends


Chorus 2: Slower Beat
Bb      Cm
  I was beat up by the
F
pictures in my mind
Eb Bb/D  Eb
on these days
Bb      Cm
  I saw heat and fire
F
come to take your place
Eb Bb/D  Eb
on these days
Bb               Cm
  Walked thought brilliant
            F
light on my way to see you
Eb Bb/D  Eb
on these days
Bb        G#
  I can't move at all with
   Cm               Eb Bb/D Eb
my feet in quicksand
Bb        G#
  I can't move at all with
   F
my feet in quicksand
Eb Bb/D  Eb(hold)
on these days

_________________________________________

3.) Self Appointed Leader

Key: F#

Tuning: Standard EADGBe

Chords used:
Ebm -  x68876
B -    x24442
F# -   244322
C# -   x46664
G#m -  466444
Bbm -  x13321
C#/F - 143xxx


Intro:

Theo:
Ebm-C#-Ebm-F#-Ebm-C#-B-C---#- x3
Ebm-C#-Ebm-F#-Ebm-C#-B-----#

        C#              Ebm               B                G#m               Bbm
e|---------------|---------------|-----------------|-----------------|-----------------|
B|---------------|---------------|-----------------|-----------------|-----------2-----|
G|-6-------------|-8-----------8-|-4-------------4-|-----------------|-3---3-----------|
D|-6----1h3h4----|-8-----------8-|-4-------------4-|-6---------------|-3---3-----------|
A|-4--4--------4-|-6-6-6-6-6-6-6-|-2-2-2-2-2-2-2-2-|-6---------------|-1-1-1-1-1---1-1-|
E|---------------|---------------|-----------------|-4-4-4-4-4-4-4-4-|-----------------|

       Ebm                B                G#m               Bbm
e|---------------|-----------------|-----------------|-----------------|
B|---------------|-----------------|-----------------|-----------2-----|
G|-8-----------8-|-4---4-4-------4-|-----------------|-3---3-----------|
D|-8-----------8-|-4---4-4-hold--4-|-6---------------|-3---3-----------|
A|-6-6-6-6-6-6-6-|-2-2-2-2-------2-|-6---------------|-1-1-1-1-1---1-1-|
E|---------------|-----------------|-4-4-4-4-4-4-4-4-|-----------------|

     Ebm
e|---------|
B|---------|
G|-8---8-8-|
D|-8---8-8-|
A|-6---6-6-|
E|---------|


Tom: at 2nd turn
e|----1-2--------1-2--6-|
B|-4-------2--4---------|
G|----------------------|
D|----------------------|
A|----------------------|
E|----------------------|


Verse 1:
        Ebm
did you think
B
i was blind
        G#m
did you think
                Bbm
that i couldn't see
        Ebm
did you think i'd
B
just dismiss
       G#m           Bbm
your betrayal so easily


Chorus:
B
  sick and tired of
F#
  sick and tired
G#m
   sick and tired of
Bbm
your negativity
B
  sick and tired
F#
  sick and tired of
G#m
   sick and tired of
Bbm
your contridictions


Interlude:

Theo:
Ebm-C#-Ebm-F#-Ebm-C#-B-C---#- x3
Ebm-C#-Ebm-F#-Ebm-C#-B-----#


        C#           Ebm
e|---------------|---------|
B|---------------|---------|
G|-6-------------|-8---8-8-|
D|-6----1h3h4----|-8---8-8-|
A|-4--4--------4-|-6---6-6-|
E|---------------|---------|


Tom: at 2nd turn
e|----1-2--------1-2--6-|
B|-4-------2--4---------|
G|----------------------|
D|----------------------|
A|----------------------|
E|----------------------|


Verse 2:
                 Ebm
you should understand
                 B
in order to make change
               G#m
more than just words and
               Bbm
ideologies are needed
                     Ebm
you gotta be down to earth
                       B
so get it through your head
         G#m
nobody appointed
                Bbm
you any kind of leader
       Ebm
and to think i
B
  once trusted you
G#m              Bbm
used to call you friend
         Ebm
i can forgive
              B
but i cant forget
          G#m
i wont be hurt
        Bbm
by you again


(Repeat Chorus)


Guitar Solo: x means palm mute

Theo:
                 B                                  C#
e|---------------------------------|---------------------------------|
B|---------------------------------|---------------------------------|
G|---------------------------------|---------------------------------|
D|-----4---3-----4---3-----4---3---|-----3---4-----3---4-----3---4---| x7
A|-2-2---2---2-2---2---2-2---2---2-|-4-4---4---4-4---4---4-4---4---4-|
E|---------------------------------|---------------------------------|
   x x   x   x x   x   x x   x   x   x x   x   x x   x   x x   x   x

                 B                                  C#
e|---------------------------------|----------------------------------|
B|---------------------------------|----------------------------------|
G|---------------------------------|----------------------------------|
D|-----4---3-----4---3-----4---3---|-----3---4-----3---4-----1h3h4----|
A|-2-2---2---2-2---2---2-2---2---2-|-4-4---4---4-4---4---4-4--------4-|
E|---------------------------------|----------------------------------|
   x x   x   x x   x   x x   x   x   x x   x   x x   x   x x

                 B                                  C#
e|---------------------------------|---------------------------------|
B|---------------------------------|---------------------------------|
G|---------------------------------|---------------------------------|
D|-----4---3-----4---3-----4---3---|-----3---4-----3---4-----3---4---| x2
A|-2-2---2---2-2---2---2-2---2---2-|-4-4---4---4-4---4---4-4---4---4-|
E|---------------------------------|---------------------------------|
   x x   x   x x   x   x x   x   x   x x   x   x x   x   x x   x   x


Tom:
   B     C#    B     C#    B   C#  B                 C#
e|---|-------|---|-------|---|---|---|---------------------------------|
B|---|-------|---|-------|---|---|---|---------------------------------|
G|-4-|-6-6-6-|-4-|-6-6-6-|-4-|-6-|-4-|-6-6-6-6-6-6-6-6-6-6-6-6-6-6-6-6-|
D|-4-|-6-6-6-|-4-|-6-6-6-|-4-|-6-|-4-|-6-6-6-6-6-6-6-6-6-6-6-6-6-6-6-6-|
A|-2-|-4-4-4-|-2-|-4-4-4-|-2-|-4-|-2-|-4-4-4-4-4-4-4-4-4-4-4-4-4-4-4-4-|
E|---|-------|---|-------|---|---|---|---------------------------------|
                                       x x x x x x x x x x x x x x x x

                 B                                  C#
e|---------------------------------|---------------------------------|
B|---------------------------------|---------------------------------|
G|---------------------------------|---------------------------------|
D|-----4---3-----4---3-----4---3---|-----3---4-----3---4-----3---4---| x2
A|-2-2---2---2-2---2---2-2---2---2-|-4-4---4---4-4---4---4-4---4---4-|
E|---------------------------------|---------------------------------|
   x x   x   x x   x   x x   x   x   x x   x   x x   x   x x   x   x

                 B                                  C#
e|---------------------------------|---------------------------------|
B|---------------------------------|---------------------------------|
G|-----3---1-----3---1-----3---1---|-----3---4-----3---4-----3---4---|
D|-4-4---4---4-4---4---4-4---4---4-|-3-3---3---3-3---3---3-3---3---3-|
A|---------------------------------|---------------------------------|
E|---------------------------------|---------------------------------|
   x x   x   x x   x   x x   x   x   x x   x   x x   x   x x   x   x

                 B                                  C#
e|---------------------------------|---------------------------------|
B|---------------------------------|---------------------------------|
G|-----3---1-----3---1-----3---1---|-----1---3-----1---3-----1---3---|
D|-4-4---4---4-4---4---4-4---4---4-|-3-3---3---3-3---3---3-3---3---3-|
A|---------------------------------|---------------------------------|
E|---------------------------------|---------------------------------|
   x x   x   x x   x   x x   x   x   x x   x   x x   x   x x   x   x

                 B                                  C#
e|---------------------------------|---------------------------------|
B|---------------------------------|---------------------------------|
G|-----6---4-----6---4-----6---4---|-----8---6-----8---6-----8---6---|
D|-4-4---4---4-4---4---4-4---4---4-|-6-6---6---6-6---6---6-6---6---6-|
A|---------------------------------|---------------------------------|
E|---------------------------------|---------------------------------|
   x x   x   x x   x   x x   x   x   x x   x   x x   x   x x   x   x

Outro:
F#     C#/F           Ebm  B C#
you've got it in your mind
     F#
that you've been appointed
C#/F               Ebm B C#
some kind of leader
F#     C#/F           Ebm  B C#
you've got it in your mind
F#        C#/F           Ebm  B C# B C# B C# Ebm(hold)
you' have got it in your mind

_____________________________________

4.) Beauville

Key: Bb

Tuning: Standard EADGBe

Chords used:
F -  133211
Gm - 355333
Eb - x68886
Bb - x13331


Intro: F-Gm-Eb-Bb-Gm-Eb- x4

Guitar 2:
   F  Gm   Eb    F  Gm   Eb
e|---|---|-----|---|---|-----|
B|-1-|---|-1---|-3-|---|-3---|
G|---|-3-|---3-|---|-3-|---3-|
D|---|---|-----|---|---|-----|
A|---|---|-----|---|---|-----|
E|---|---|-----|---|---|-----|


Verse:
F   Gm   Eb     Bb  Gm
  I heard  your invitation
Eb   F         Gm
So I got up to bat
Eb    Bb         Gm
And I swung real hard
  Eb      F            Gm
I think I knock up the lights
Eb     Bb       Gm
  When I looked back
      Eb      F   Gm
Cause you had no idea
      Eb    Bb
Where I was coming from
  Gm      Eb
I think I heard your
F     Gm     Eb  Bb Gm
shell break (I'm leaving)
    Eb      F
And I could feel
    Gm    Eb  Bb Gm   Eb
the pain (I'm leaving you)
F           Gm
  I had the nerve
Eb Bb     Gm Eb   F
To put up a  fight when no one
Gm   Eb    Bb      Gm      Eb
else could reach inside to you


Chorus 1:
Bb            F
  Here you go this is yours a
Dm                      Eb
peace of mind a sort of restitution
(Repeat)


(Repeat Intro)
(Repeat Verse)


Chorus 2:
Bb            F
  Here you go this is yours a
Dm                      Eb
peace of mind a sort of restitution
(Repeat x4)


Outro: Eb(hold)

_____________________________________

5.) What To Do

Key: Bb

Tuning: Standard EADGBe

Chords used:
Bb -   x13331
F -    133211
Gm -   355333
Eb -   x68886
Cm -   x35543
Bb/D - x587xx


Intro: Bb--Gm--Eb--F--

Guitar 2:
                    Bb             Gm             Eb             F
e|-----------|--------------|--------------|--------------|--------------|
B|---4-3-1-3-|------4-3-1-3-|------4-3-1-3-|-4----4-3-1-3-|-1----4-3-1---|
G|-3---------|-3--3---------|-0--0---------|----3---------|----3-------3-|
D|-----------|--------------|--------------|--------------|--------------|
A|-----------|--------------|--------------|--------------|--------------|
E|-----------|--------------|--------------|--------------|--------------|


Verse 1:
Bb
  something's on my mind
F               Eb
  something is straight sometimes
Bb                                 F    Eb
  i'm find sit around out here and think


Chorus 1:
Bb          F           Eb
do you even know what's going on?
      Bb                  F         Eb
cause I sure don't have a clue with you anymore


Interlude: Bb--Gm--Eb--F--

Guitar 2:
                    Bb             Gm             Eb             F
e|-----------|--------------|--------------|--------------|--------------|
B|---4-3-1-3-|------4-3-1-3-|------4-3-1-3-|-4----4-3-1-3-|-1----4-3-1---|
G|-3---------|-3--3---------|-0--0---------|----3---------|----3-------3-|
D|-----------|--------------|--------------|--------------|--------------|
A|-----------|--------------|--------------|--------------|--------------|
E|-----------|--------------|--------------|--------------|--------------|


Verse 2:
Bb
  Got a wound inside
F       Eb
  But i know i'm fine
Bb                        F    Eb
  Sit around out here and think


Chorus 2:
Bb          F           Eb
Do you even know what's going on?
        Bb                  F
Cause i can't stand to hang out
   Eb           Cm   Bb/D Eb  Bb F
Or even be with you any---more
     Cm   Bb/D Eb  Bb F--
with you any---more


Breakdown: Guitar Solo
Bb-Gm-F-Eb- x4

Guitar 2: Pluck thee strings fast!!!
         Bb                Gm                 F                 Eb
e|-----------------|-----------------|-----------------|-----------------|
B|-----------------|-----------------|-----------------|-----------------|
G|-----------------|-----------------|-----------------|-----------------|
D|-----1-1-0-0-----|-----1-1-0-0-----|-----1-1-0-0-----|-1-1-1-1-0-0-1-1-| x4
A|-1-1---------1-1-|-----------------|-----------------|-----------------|
E|-----------------|-3-3---------3-3-|-1-1---------1-1-|-----------------|


Chorus 3:
     Cm   Bb/D Eb  Bb F--
with you any---more
     Cm   Bb/D Eb  Bb F--
with you any---more
     Cm   Bb/D Eb  Bb F--
with you any---more
     Cm   Bb/D Eb  Bb F--
with you any---more
     Cm   Bb/D Eb  Bb F--
with you any---more
     Cm   Bb/D Eb  Bb F--
with you any---more


Outro: Cm--Bb/D-Eb--Bb-F x2

_________________________________________

6.) The Mend

Key: G#

Tuning: Standard EADGBe

Chords used:
Eb -   x68886
Fm -   133111
C# -   x46664
F# -   244322
G# -   466544
C#/F - 143xxx


Intro:

Tom: Eb-Fm-Eb-C------#-Eb-Fm-Eb-G#(hold)
Eb-Fm-Eb-C#-Eb-Fm-F--#


Theo:
e|----13----|----13----|-14-13----|-16-13----|
B|-------14-|-------14-|-------14-|-------14-|
G|-13-------|-13-------|----------|----------|
D|----------|----------|----------|----------|
A|----------|----------|----------|----------|
E|----------|----------|----------|----------|


Verse 1:
G#     C#      Eb
  It's time to think
      C#
about vital parts
    Fm    G#    C#      Eb
And values  to start to focus my
  C#              Fm
attention on what makes me happy


Chorus 1:
Eb          G#
  I want to share things with those I
C#
care about I've got so much in me
Eb          Fm
  I want to soak up what's pouring
C#
out from those who care about me
C#            G#
  I'm certain this time
C#              G#
  I'll make the change
        Fm(hold)
I'll at least try


(Repeat Intro)


Verse 2:
G#  C#       Eb
  Advice and tips on some
C#              Fm
better way's to keep a friend
G#         C#        Eb
  Straight from your pretty face to
C#              Fm
make a point of making contact


Chorus 2:
Eb          G#
  I want to share things with those I
C#
care about I've got so much in me
Eb          Fm
  I want to soak up what's pouring
C#
out from those who care about me
C#            G#
  I'm certain this time
C#              G#
  I'll make the change
        Fm(hold) Eb(hold)
I'll at least try


Outro: G#-C#/F-Eb-- x8

________________________________________

7.) Reign On Your Parade

Key: C#

Tuning: Standard EADGBe

Chords used:
G# -  466544
Bbm - x13321
F# -  244322
Fm -  133111
Ebm - x68876
C# -  x46664
E -   022100


Intro:

Marching Drums: Bbm---4, Bbm--

Punk Drums: Bbm--8,
G#-Bbm-F#-Fm-G#-Bbm-F#-Fm-G#-Bbm-F#-Fm---C#--Ebm--#-x2
G#-Bbm--G#-Bbm--G#-Bbm--C#--Ebm--x4---------------#

Bass Solo: G#-Bbm--C#-Ebm-
G|-----------------|
D|-----------------|
A|---1---1-4-4-4-6-| x4
E|-4---4-----------|


Verse 1:
G#  Bbm       C# Ebm
fractured life
     G# Bbm        C# Ebm
your si-lence heard
G# Bbm              C#     Ebm
      it's what you didn't want
G# Bbm         C#     Ebm
   what others didn't see
G#  Bbm     C#
painful past
      G# Bbm     C# Ebm
you'd ra-ther die
G# Bbm           C#   Ebm
   than try to explain
G# Bbm    C#          Ebm
   how it hurts inside


Refrain:
Bbm
don't you think their future's
                    C#
filled with dire problems?
Bbm
   you clench your fist
                   C#
you close your eyes
Bbm                  C#
don't point the blame
    Bbm                         C#
you might find yourself the same


Chorus:
    G#   Bbm F# Fm
you terrify
    G#     Bbm F# Fm
you dare deny
     G#   Bbm       F# Fm
this poor kid's life
C#
  there's not
     Ebm
much more
     G#  Bbm F# Fm
to identify
     G#  Bbm          F# Fm
when something's wrong
    G#     Bbm F# Fm
the end is near
C#
  there's not much
Ebm
more that I can do


Interlude: G#-Bbm--G#-Bbm--G#-Bbm--C#--Ebm--x4-


Verse 2:
    G#   Bbm   C# Ebm
You took it all
      G# Bbm    C# Ebm
their in-nocence
G# Bbm       C#             Ebm
      left behind with scars
G# Bbm             C#   Ebm
      and shameful tears
   G# Bbm      C# Ebm
it doesn't need
   G# Bbm     C# Ebm
to be this way
G# Bbm     C#
   it just seems
Ebm          G# Bbm     C# Ebm
that it will ne-ver go away


(Repeat Refrain and Chorus)


Outro: G#-Bbm--G#-Bbm--G#-Bbm--C#--E---#- x2
E-Bbm--E-Bbm---------------------------#-E-Bbm-E-Bbm-E-Bbm

_____________________________________________

8.) Suds

Key: Eb

Tuning: Standard EADGBe

Chords used:
Eb - x68886
Fm - 133111
Cm - x35543
G# - 466544
Bb - x13331


Intro: Eb-Fm-Cm-G#- x2


Verse 1:
Eb               Fm
  this bridge is falling down
    Cm           G#
and just like it was before
Eb    Fm       Cm        G#
  its bad, and I made it recur
Eb            Fm
  crossed the bridge and
   Cm          G#
it caught my attention
Eb   Fm      Cm         G#
  an ocean diluting frustration
Eb      Fm
  so I smashed it down in
Cm           G#
search of contentment
Eb       Fm       Cm       G#
  I fell down and into the ocean
Eb    Fm        Cm        G#
  now I am wet, shivering wasted
Eb      Fm           Cm    G#
  and I recognize my degeneration


Chorus 1:
Eb                        Fm Cm G# Bb
  I can see so clearly now
Eb                                 Fm Cm G# Bb
  that I'm searching for simplicity
Eb                          Fm Cm G# Bb
  I can face the problem now
Eb
  as I look into the mirror
Fm Cm   G#   Bb
I  don't hate you


Verse 2:
Eb     Fm          Cm     G#
  as a crutch when I am dependent
Eb        Fm      Cm        G#
  I reach out and it wont reject me
Eb     Fm      Cm            G#
  as a blanket when you need warmth
Eb      Fm            Cm             G#
  it surrounds me but it still feels cold


Chorus 2:
Eb                          Fm Cm G# Bb
  i can face the problem now
Eb                                Fm Cm G# Bb
  that i am searching for felicity
Eb                        Fm Cm G# Bb
  i can see so clearly now
Eb
  when i look into your eyes
Fm Cm    G#   Bb
i  don't hate you


Outro: Guitar Solo
Eb-Fm-Cm-G#- x8

____________________________________________

9.) Nothing New

Key: G#

Tuning: Standard EADGBe

Chords used:
G#/C - x365xx
C# -   x46664
G# -   466544
Eb -   x68886


Intro:

Guitar Solo without bass and drums: x2
   G#/C      C#      G#         Eb
e|-------|-------|-------|---------------|
B|-------|-------|-------|---------------|
G|---0-1-|---3-5-|---5-3-|---1-0---1-0---|
D|-------|-------|-------|-1-----1-----1-|
A|-3-----|-4-----|-------|---------------|
E|-------|-------|-4-----|---------------|

   G#/C      C#      G#         Eb
e|-------|-------|-------|---------------|
B|-------|-------|-------|---------------|
G|---0-1-|---3-5-|---5-3-|---1-0---3-1-0-|
D|-------|-------|-------|-1-----1-------|
A|-3-----|-4-----|-------|---------------|
E|-------|-------|-4-----|---------------|


Distortion + bass + Drums: x2
        G#/C               C#
e|-----------------|-----------------|
B|-----------------|-----------------|
G|---0-1---3-5---5-|-3---1-0---1-0---|
D|-----------------|---1-----1-----1-|
A|-3-----4---------|-----------------|
E|-------------4---|-----------------|

         G#                Eb
e|-----------------|-----------------|
B|-----------------|-----------------|
G|---0-1---3-5---5-|-3---1-0---3-1-0-|
D|-----------------|---1-----1-------|
A|-3-----4---------|-----------------|
E|-------------4---|-----------------|


Verse 1:
 G#/C          C#
another dollar fifty
 G#          Eb
another ride on the bus
    G#/C                C#
the seat left alone is still warm
    G#             Eb
the person next to me talks
         G#/C
to me as if he knows me
    C#       G#
but thats ok I don't mind
  Eb
I look out the window
      G#/C          C#
while he talks on I do the usual


Chorus 1:
G#                Eb
try to figure out what
these people do
G#/C         C#
in their own solitude
G#             Eb
  some seem so plain
     G#/C
some seem so lonesome
C#                 G#
lost depressed and true
     Eb
it's all inside of you


Interlude: G#/C-C#-G#-Eb-


Verse 2:
G#/C          C#
wandering and waiting
G#
all your life for
Eb
something new
   G#/C
to change you
    C#
but it all seems to
G#
turn in circles
Eb
nothing's new
G#/C        C#
finding and learning
G#
all you need is
Eb
something to guide you
G#/C
nothing stimulates
C#
no inspiration


Chorus 2:
G#                Eb
try to figure out what
these people do
G#/C         C#
in their own solitude
G#             Eb
  some seem so plain
     G#/C
some seem so lonesome
C#                 G#
lost depressed and true
     Eb
it's all inside of you
G#/C     C#
    it's all inside of you
G#       Eb
    it's all inside of you


Interlude:

Bass Solo:
            G#/C                Fm
G|-5-5---3--1-|-5-5---------|---------|
D|------------|-----5-------|---------|
A|-----3------|-------3-6-3-|---------|
E|------------|-------------|-1-1-1-1-|
        x2

Guitar 1: G#/C-C#-Eb-Fm- x4

Guitar 2:
      G#/C          C#          Eb        Fm
e|------------|------------|----------|---------|
B|------------|------------|----------|---------|
G|-5-5----0h1-|-6-6----3h5-|-8-8--8-8-|---------|
D|-6-6--------|-6-6--------|-8-8--8-8-|-3-3-3-3-|
A|-3-3--3-----|-4-4--4-----|-6-6--6-6-|-3-3-3-3-|
E|------------|------------|----------|-1-1-1-1-|

Bass:
      G#/C          C#           Eb         Fm
G|-5-5---3--1-|-5-5---3--1-|-5-5---3--1-|---------|
D|------------|------------|------------|---------|
A|-----3------|-----4------|-----6------|---------| x4
E|------------|------------|------------|-1-1-1-1-|

G#/C-C#-G#-Eb-


Chorus 3:
G#                Eb
try to figure out what
these people do
G#/C         C#
in their own solitude
G#             Eb
  some seem so plain
     G#/C
some seem so lonesome
C#                 G#
lost depressed and true
     Eb
it's all inside of you
G#/C     C#
    it's all inside of you
G#       Eb
    it's all inside of you
G#/C     C#
    it's all inside of you
G#       Eb               G#/C(hold)
    it's all inside of you

____________________________________________

10.) Burying Your Past

Key: Bb

Tuning: Standard EADGBe

Chords used:
Gm - 355333
G# - 466544
Bb - x13331
Eb - x68886
F -  133211


Verse 1:
Gm
  You used to shine like a
G#
diamond all the time
        F
But now you forgot all your
                  Gm
dreams forgot the times
             G#
That you had gravel in your knees
    Eb       F
and I raised you back to your feet
    Gm
And now you're watered down
                Bb             F
there's nothing left burning inside


Chorus 1:
Eb        Bb           Eb    F
  So many times I fell on my face and
   Eb           Bb     Eb      F
you  lifted my spirits back to place
Eb           Gm         Eb   F
  I hope the pieces are all around
Eb           Bb    Eb             F
  the puzzle of you  burying your past


Verse 2:
Gm                     G#
  And if that perfect smile isn't
            Bb
the perfect lie you're faking again
Gm                    G#
  Wake in the morning bleeding
                 Eb
from my back and dying
        F
Because you neglect your heart
  Gm
I have so many emotions
         Bb            F
Passions burning in my heart


(Repeat Chorus 1)


Guitar Solo: Gm--G#--Bb-- x4


Chorus 2:
Eb        Bb           Eb    F
  So many times I fell on my face and
   Eb           Bb     Eb      F
you  lifted my spirits back to place
Eb           Gm         Eb   F
  I hope the pieces are all around
Eb           Bb    Eb             F   Gm--Bb-F--Gm(hold)
  the puzzle of you  burying your past

__________________________________________

11.) Naked

Key: Bb

Tuning: Standard EADGBe

Chords used:
Bb - x13331
Cm - x35543
Gm - 355333
Eb - x68886
F -  133211
F# - 244322
G# - 466544


Intro: Bb-- x8


Verse:
Bb                        F
  It seems so hard to find
Bb
  a decent place outside
     F  Bb
With no need to hide you can
               F Bb
speak your mind  you can be honest
                         Bb
And you don't have to pretend
F         Bb
you could brave the day
         F Bb        F Bb
And wear a naked face


Chorus 1:
Gm F Eb
       but why do you loathe
         Gm     F
all your friends
        Eb
Making cracks at their
       Gm       F
expense  if you choose a reason
Bb           F
Why it would probably make
    Gm            F
you cry while you fight
          Eb
With the still small voice inside
F         Gm      Eb     F
  you can read me like a book
                Bb
I guess there's nothing to hide
F         Gm      Eb     F   F# G#
  you can read me like a book


Interlude: Bb--Cm--Gm--Eb-- x2


Chorus 2:
Gm F Eb
       but why do you loathe
         Gm     F
all your friends
        Eb
Making cracks at their
       Gm       F
expense  if you choose a reason
Bb           F
Why it would probably make
    Gm            F
you cry while you fight
          Eb
With the still small voice inside
F         Gm      Eb     F
  you can read me like a book
                Bb
I guess there's nothing to hide
F         Gm      Eb     F
  you can read me like a book
        F#         G#
There's nothing to hide!!!


Outro: Bb--Cm--Gm--Eb-- x4, Bb(hold)

______________________________________

12.) License From A Cereal Box

Key: Bb

Tuning: Standard EADGBe

Chords used:
G# -  466544
F# -  244322
Bb -  x13331
C# -  x46664
Eb -  x68886
F -   133211
G#m - 466444
Ebm - x68876


Intro: Car Starting then Drumbeats
G#---G#---G#-F#-G#-

Distortion: Bb--F-Eb--F-Bb--F-F--C#-F-x2

Car Honks and drivers trash talks to other cars
Bb-- x6, G#--F--


Verse 1:
   C#    Bb
It seems every time we're driving
                            G#
down the transcanada number 1
    Bb
The traffic's growing worse
     F  C#   Bb
everyday  it doesn't really help
When there's a bozo at the wheel
 G#     Bb
slowing down cutting people
    F                  C#
Off I don't think it's funny


Chorus:
Bb           F Eb
  Hit the gas    hit the brakes
F Bb                F
    In a traffic jam I think I'm
C#           Bb           F    Eb
late for work  got your license
              F  Bb
From a cereal box  you don't know how
   F                   C#
to drive you're just a fucking jerk


Post Chorus 1: x2, x means palm mute
       Bb              G#             Bb           Cool Riff
e|--------------|--------------|--------------|-----------------|
B|--------------|--------------|--------------|-4-2---2---------|
G|-----3------3-|-----1------1-|-----3------3-|-----3---3-2-1---|
D|--------------|--------------|--------------|---------------4-|
A|-1-1----1-1---|--------------|-1-1----1-1---|-----------------|
E|--------------|-4-4----4-4---|--------------|-----------------|
   x x    x x     x x    x x     x x    x x


Verse 2:
   Bb
It never fails getting on
there's always something going
G#      Bb
Wrong a lot of cars a lot of smog
F             C#
  It's pretty hazy when a
Bb
blowout in a tire becomes
                  F   Bb
Such a big desire for idiots to
           F                C#
watch slow down it makes me crazy
Bb                         G#
  Think you know how I feel
Bb                 F       C#
  what I need is a new automobile
Bb
  Like the game spyhunter
             G# Bb
I could enjoy   anyone
Who would annoy set the
F        C#
missiles seek and destroy


(Repeat Chorus twice)


Post Chorus 2:
       Bb              G#             Bb           Cool Riff
e|--------------|--------------|--------------|-----------------|
B|--------------|--------------|--------------|-4-2---2---------|
G|-----3------3-|-----1------1-|-----3------3-|-----3---3-2-1---|
D|--------------|--------------|--------------|---------------4-|
A|-1-1----1-1---|--------------|-1-1----1-1---|-----------------|
E|--------------|-4-4----4-4---|--------------|-----------------|
   x x    x x     x x    x x     x x    x x

       Bb              G#             Bb
e|--------------|--------------|--------------|
B|--------------|--------------|--------------|
G|-----3------3-|-----1------1-|-----3------3-|
D|--------------|--------------|--------------|
A|-1-1----1-1---|--------------|-1-1----1-1---|
E|--------------|-4-4----4-4---|--------------|
   x x    x x     x x    x x     x x    x x


Outro: Beat Changes
                 G#m
e|-------------------------------------|
B|------2h3p2--------------------------|
G|----------------1h4p1------------4-1-|
D|-6-6---------6---------6-2-1-2-------| x2
A|-6-6---------6---------6-------2-----|
E|-4-4---------4---------4-------------|
   x x         x         x

                            Ebm
e|---------------------------------------------------------6-|
B|-4-2---2---------4-2---2---------4-2---2-----------------7-|
G|-----3---3-2-1-------3---3-2-1-------3---3-2-1---8-8-8-8-8-|
D|---------------4---------------4---------------4-8-8-8-8-8-|
A|-------------------------------------------------6-6-6-6-6-|
E|-----------------------------------------------------------|

______________________________________

13.) Stand And Deliver

Key: C#

Tuning: Standard EADGBe

Chords used:
Bbm - x13321
F# -  244322
C# -  x46664
G# -  466544
Fm -  133111


Intro:

Theo: Bbm-F#-Bbm-C#- x2

Tom:
e|-----1------1-|
B|-2-4----2-4---|
G|--------------|
D|--------------|
A|--------------|
E|--------------|


Verse 1:
Bbm                    C#
where it all began cuz i don't even
             G#                   Bbm
know but the shit keeps piling on top


Tom: after "piling at top"
e|-14-13----|
B|-------14-|
G|----------|
D|----------|
A|----------|
E|----------|

    Bbm                  C#
you dont make amends and i
                     G#
don't understand and you
                F# Fm
don't even know me


Chorus 1:
F#                           G#
Someone's holding on to me i think
                     Bbm Fm-F# Bbm Fm-F# Bbm--F#--
i really should calm down
F#                     G#
i can feel my adenalin running
                     Bbm Fm-F# Bbm Fm-F# Bbm--F#--
through my veins and blood
F#
sometimes you can lose
            G#
control and they dont
                F#
understand they take
you for a ride then
G#                   Bbm Fm-F# Bbm Fm-F# Bbm--F#-- x2
they wanna hold your hand


Interlude:

Theo: Bbm-F#-Bbm-C#- x4

Tom:
e|-----1------1-|
B|-2-4----2-4---|
G|--------------|
D|--------------| x2
A|--------------|
E|--------------|


Verse 2:
    Bbm
you fought you screamed
    C#
and they dont even know
G#                       Bbm
what you really have in store
    Bbm
you hear all the shit
    C#
and you dont fucking care

and you just have to ignore
Bbm                    C#
where it all began cuz i don't even
             G#                   Bbm
know but the shit keeps piling on top


Tom: after "piling at top"
e|-14-13----|
B|-------14-|
G|----------|
D|----------|
A|----------|
E|----------|

    Bbm                  C#
you dont make amends and i
                     G#
don't understand and you
                F# Fm
don't even know me


Chorus 2:
F#                           G#
Someone's holding on to me i think
                     Bbm Fm-F# Bbm Fm-F# Bbm--F#--
i really should calm down
F#                     G#
i can feel my adenalin running
                     Bbm Fm-F# Bbm Fm-F# Bbm--F#--
through my veins and blood
F#
sometimes you can lose
            G#
control and they dont
                   F#
understand they're fake
                  G#
and full shit and you already know
     F#
they take you for a ride then
G#                   Bbm Fm-F# Bbm Fm-F# Bbm--F#-- x2
they wanna hold your hand

___________________________________________

14.) OK

Key: F#

Tuning: Standard EADGBe

Chords used:
C# -   x46664
Ebm -  x68876
F# -   244322
C#/F - 143xxx
B -    x24442
G#m -  466444
E -    022100


Intro:

Part 1:

Craig: Bass Solo
         Ebm
G|------------------|
D|------1-1-1-4-1-1-|
A|-4-6--------------| x8
E|------------------|

Tom: x means palm mute, ! means artifical harmonics
             Ebm           F#
e|------------|-----14!-|-----|---|
B|------------|---------|-----|---|
G|-8--------8-|-8-------|-----|---|
D|-8--------8-|-8-------|-4-4-|-3-|
A|-6--6-6-6-6-|-6-------|-4-4-|-4-|
E|------------|---------|-2-2-|-1-|
      x x x
       x2

Part 2: Distorted Part

Craig:
    Ebm        B               F#          C#/F
G|-------|-----------|--------------------|---|
D|-------|-----------|--------------------|---|
A|-6-6-6-|-2-2-2-2-2-|--------------------|---| x3
E|-------|-----------|-2--2-2-2-2-2--2--2-|-1-|

    Ebm        B               F#          G#m
G|-------|-----------|--------------------|---|
D|-------|-----------|--------------------|---|
A|-6-6-6-|-2-2-2-2-2-|--------------------|---|
E|-------|-----------|-2--2-2-2-2-2--2--2-|-4-|

Tom:
    Ebm        B               F#          C#/F
e|-------|-----------|--------------------|---|
B|-------|-----------|--------------------|---|
G|-8-8-8-|-4-4-4-4-4-|--------------------|---|
D|-8-8-8-|-4-4-4-4-4-|-4--4-4-4-4-4--4--4-|-3-|
A|-6-6-6-|-2-2-2-2-2-|-4--4-4-4-4-4--4--4-|-4-| x3
E|-------|-----------|-2--2-2-2-2-2--2--2-|-1-|
                          x x x x x  x  x

    Ebm        B               F#          G#m
e|-------|-----------|--------------------|---|
B|-------|-----------|--------------------|---|
G|-8-8-8-|-4-4-4-4-4-|--------------------|---|
D|-8-8-8-|-4-4-4-4-4-|-4--4-4-4-4-4--4--4-|-6-|
A|-6-6-6-|-2-2-2-2-2-|-4--4-4-4-4-4--4--4-|-6-|
E|-------|-----------|-2--2-2-2-2-2--2--2-|-4-|
                          x x x x x  x  x

Theo:
e|---------------|
B|----------2h4!-|
G|-3-3--4--------|
D|--------4------|
A|---------------|
E|---------------|


Verse 1:
Ebm  B         F#       G#m
   I break the bones to pieces
Ebm   B           F#        G#m
   in my hands my clenching fingers
Ebm     B            F#   G#m
   Were you the same all along
      Ebm      B
did I just get bored
    F#              G#m(hold) B-B-B-
Why did I push you away


Verse 2:
Ebm   B        F#           G#m
   I still sit plagues with questions
Ebm     B       F#     G#m
   your actions your intentions
Ebm    B                 F#      G#m
   Why couldn't you just talk to me
Ebm    B
   Was it that I just
F#                G#m(hold)
couldn't smile anymore
                    B
Tired of keeping it inside


Chorus:
F#     C#     B
  so I failed at you
    F#             C# B
And now I pass out e--very night
    Ebm         C#
i associate the worst things
          Ebm
With your face
F#      C#   B
  and I know you're at
  F#
a loss from what
    C#    B      Ebm
You threw away I just wish
             C#          Ebm
that you had left my innocence


Theo: Chorus
e|-2-1-2-1-2-4--2-1-2-1-2-4--------------------------|
B|---------------------------------0-0-2-2-4-2-2-0---|
G|---------------------------3-3-3-----------------3-|
D|---------------------------------------------------|
A|---------------------------------------------------|
E|---------------------------------------------------|


Post Chorus: Slower Beat

Craig:
         F#                G#m
G|-----------------|-----------------|
D|-----------------|-----------------|
A|---------1h2p1---|-----------------| x3
E|-2-2-2-2-------2-|-4-4-4-4-4-4-4-4-|

         F#            Ebm      E
G|-----------------|---------|---------|
D|-----------------|-1-1-1-1-|---------|
A|---------1h2p1---|---------|---------|
E|-2-2-2-2-------2-|---------|-0-0-0-0-|

         F#                G#m
G|-----------------|-----------------|
D|-----------------|-----------------|
A|---------1h2p1---|-----------------| x3
E|-2-2-2-2-------2-|-4-4-4-4-4-4-4-4-|

         F#            Ebm      E
G|-----------------|---------|---------|
D|-----------------|-1-1-1-1-|---------|
A|---------1h2p1---|---------|---------|
E|-2-2-2-2-------2-|---------|-0-0-0-0-|


Tom:
     F#         G#m
e|-------|-----------------|
B|-------|-----------------|
G|-------|-----------------|
D|-4-4-4-|-6-6-6-6-6-6-6-6-| x3
A|-4-4-4-|-6-6-6-6-6-6-6-6-|
E|-2-2-2-|-4-4-4-4-4-4-4-4-|
   x x     x x   x x   x

     F#      Ebm        E
e|-------|---------|---------|
B|-------|---------|---------|
G|-------|-8-8-8-8-|---------|
D|-4-4-4-|-8-8-8-8-|-2-2-2-2-|
A|-4-4-4-|-6-6-6-6-|-2-2-2-2-|
E|-2-2-2-|---------|-0-0-0-0-|
   x x

     F#         G#m
e|-------|-----------------|
B|-------|-----------------|
G|-------|-----------------|
D|-4-4-4-|-6-6-6-6-6-6-6-6-| x3
A|-4-4-4-|-6-6-6-6-6-6-6-6-|
E|-2-2-2-|-4-4-4-4-4-4-4-4-|
   x x     x x   x x   x

         F#           Ebm        E
e|----------------|---------|---------|
B|--------2h4p2---|---------|---------|
G|--------------3-|-8-8-8-8-|---------|
D|-4-4-4----------|-8-8-8-8-|-2-2-2-2-|
A|-4-4-4----------|-6-6-6-6-|-2-2-2-2-|
E|-2-2-2----------|---------|-0-0-0-0-|
   x x x


Theo:
e|---------|
B|---------|
G|-3h4p3---|
D|-------4-| x8
A|---------|
E|---------|


Outro:
F#     G#m         F#
  Even now I still wonder how
    G#m       F#
you are truly concerned
            G#m       F#
That you're well even though
           Ebm     E
you put me through this
F#          G#m
  Because I see that it's
F#              G#m
better off this way
       F#               G#m
When I think that it is right
      F#             Ebm E
and I know that I'm ok


Theo: at "truly" and "is right"
e|-13-14----|
B|-------14-|
G|----------|
D|----------|
A|----------|
E|----------|


End on: F#(hold)--B-C#-

_____________________________________

15.) Together

Key: E then A

Tuning: Standard EADGBe

Chords used:
B -   x24442
C#m - x46654
F#m - 244222
A -   x02220
Bm -  x24432
D -   xx0232
F -   133211


Intro:

Part 1:
B-C#m-B-C#m-B-C#m-F#m--A-- x3, F#m---A---

Part 2: F#m--D-A-Bm-


Verse 1:
F#m       D A
hard times
Bm  F#m             D   A
and getting harder still
Bm    F#m           D
but together we can make
   A       Bm    F#m D A Bm
it through these days
F#m    D A
hold on
Bm  F#m               D   A
and take hold of this hand
Bm F#m          D
we turn to each other
A  Bm    F#m    D A Bm
to find strength


Chorus 1:
D        D A
there is nothing that
D Bm A    Bm F
we   won't   beat together
D       D A
there's nothing
D Bm A    Bm F
no---thing   that
     B   C#m
can stop us
B C#m   B C#m
nothing nothing
  F#m A
toge--ther
B C#m   B C#m
nothing nothing
B C#m
nothing


Verse 2:
F#m    D A Bm
help me
F#m             D   A
help me face my fear
  Bm    F#m
because i don't want
   D       A    Bm F#m D A Bm
to have to walk a--lone
F#m  D A Bm
and i
F#m                  D  A
make this promise to you
Bm  F#m        D    A
to stand by support you
Bm F#m           D   A Bm
to never let you down


Chorus 2:
D        D A
there is nothing that
D Bm A    Bm F
we   won't   beat together
D       D A
there's nothing
D Bm A    Bm F
no---thing   that
     B   C#m
can stop us
B C#m   B C#m
nothing nothing
  F#m A
toge--ther
B C#m   B C#m
nothing nothing
B C#m
nothing
  F#m A
toge--ther
B C#m   B C#m
nothing nothing
  F#m A
toge--ther
B C#m   B C#m
nothing nothing
B C#m  F#m-F#m-F#m-A-A-A-C#m(hold)
nothing

__________________________________

16.) Things Happen All The Time

Key: Eb, Bb

Tuning: Standard EADGBe

Chords used:
Eb - x68886
Cm - x35543
Fm - 133111
G# - 466544
F -  133111
Bb - x13331


Intro: Eb-Cm-Fm-G#- x4

Guitar Solo:
e|----------------------3--6---------3-------------3--6--6-6-4-4-3-3-----|
B|-6-6-6-6-4-3---4--4-6-------6----4---4-6--4--4-6-------------------6-6-|
G|-------------3-----------------3---------------------------------------|
D|-----------------------------------------------------------------------|
A|-----------------------------------------------------------------------|
E|-----------------------------------------------------------------------|


Verse 1:
Eb    Cm Fm       G#
  One day  I went out my door
Eb    Cm Fm             G#
  two men  grabbed them by the throat
Eb      Cm
  Mixed up with another guy
Eb         Cm   Fm          G#
  couldn't fight  they were way too strong


Refrain:
F              Bb
  Beat me down threw
me in the trunk
F                      G#
what the fuck is going on


Chorus 1:
Eb     Cm          Fm
Why do things like this
G#             Eb
happen all the time
   Cm          Fm
do things like this
G#             Eb
happen all the time
   Cm          Fm
do things like this
G#             Eb  G# Eb
happen all the time


Breakdown:
G#
  They took a left
then a right
Bb
  hit a bump


Verse 2:
Eb          Cm Fm        G#
  the other day  Walking down the street
Eb     Cm Fm         G#
  four men  carrying bags of cash
Eb       Cm  Fm              G#
  ran me down  And then they lost a bag
Eb          Cm   Fm          G#
  and i was happy  until the cops showed up


Chorus 2: While doing the guitar solo in guitar solo
Eb     Cm          Fm
Why do things like this
G#             Eb
happen all the time
   Cm          Fm
do things like this
G#             Eb
happen all the time
   Cm          Fm
do things like this
G#             Eb
happen all the time
   Cm          Fm
do things like this
G#             Eb(hold)
happen all the time

___________________________________

17.) All We Are

Key: G#

Tuning: Standard EADGBe

Chords used:
G# -  466544
C# -  x46664
F# -  244322
Eb -  x68886
Bbm - x13321
Fm -  133111


Intro: G#--C#-- x4

Guitar 2:
e|-------------------------------|
B|-----4-------4---2---1---2---1-|
G|-1-1---1-1-1---1---1---1---1---|
D|-------------------------------| x4
A|-------------------------------|
E|-------------------------------|


Verse 1:
G#
Tell myself
The first time
     C#
That we didn't
         G#
really belong
  G#
A day passed
A month's gone
    C#
And we've never
         G#
felt so strong


Chorus 1:
 F#
Stand our ground
    C#
and always say
 F#
"All we are is
Eb
all we are"
F#          C#
  No matter what
they might say


Interlude: G#--C#-- x2


Verse 2:
      G#
It's strange how
things work out
C#             G#
Mostly for the better
    G#
But sometimes
Someone adds their
C#             G#
negative contribution


Chorus 2:
 F#                  C#
Stand our ground and always say
 F#            Eb
"All we are is all we are"
F#                 C#
No big minds in to be this way
 F#            Eb
"All we are is all we are"


Bridge:
G#           Bbm
  How did it get
        C#
screwed up?
        G#
Screwed up
  Eb
I guess with all these
               C#
changes people fear
   G#            Eb
To try something other
                  Fm
than what they're used
  C#        G#
to  With no meaning
Eb
  Or aspiration
        C#
what do you have
G#        Eb
  To look forward to?


(Repeat Verse 1)


Chorus 3:
 F#                  C#
Stand our ground and always say
 F#            Eb         F# C#
"All we are is all we are"
 F#            Eb
"All we are is all we are"
F#          C#
  No matter what
they might say


Outro: G#--C#-- x8, G#(hold)

___________________________________

18.) Paint It Black


I see a red door and I want to paint it black
No colors anymore I want them to turn black
I see the girls walk by dressed in their summer clothes
I have to turn my head until my darkness goes

I see a line of cars and they're all painted black
With flowers and my love both never to come back
I see people turn their heads quickly look away
Like a newborn baby it just happens every day

I look inside my self and see my heart is back
I see my red door , I must have it painted black
Maybe then I'll fade away and not have to face the facts
It's not easy facing up when your whole world is black

No more will my green sea go turn a deeper blue
I could not foresee this thing happening to you.
If I look hard enough into the setting sun,
My love will laugh with me before the morning comes

I see a red door and I want to paint it black
No colors anymore I want them to turn black
I see the girls walk by dressed in their summer clothes
I have to turn my head until my darkness goes

I wanna see it painted, painted black,
Black as night, black as coal
I wanna see the sun blotted out from the sky
I wanna see it painted, painted, painted, painted black.
Yea!
Добавлено: 26.11.2013
Другие материалы по этой песне:
  • Аккорды и текст

Страница создана 26.11.2013
http://primanota.ru/gob/how-far-shallow-takes-you-chords.htm
Привет, Гость.
Предлагаем пройти революционный курс по гитаре.
Подарок от PrimaNota.Ru, забирай!