PrimaNota.ru - самый крупный в мире бесплатный архив песенных текстов, аккордов, табулатур и нот


Gob - For The Moment - аккорды и текст, таба, драм-таба, видео

Регистрация Запомнить меня
Войти через:  Facebook Google Twitter Vk Yandex Mail.ru

Gob - For The Moment - аккорды и текст, таба, драм-таба, видео

Печатать
Просмотров: 127
For The Moment
Gob
Gob
For The Moment
The World According To Gob
2000
Submitted by: paramore_fans@yahoo.com

Key: G#

Tuning: Standard EADGBe

Chords used:
C# -  x46664
G# -  466544
Eb -  x68886
Fm -  133111
Bbm - x13321


Intro: G#-- x8

Guitar 1:
e|----9--8----|
B|-9----------|
G|----------8-|
D|------------| x8
A|------------|
E|------------|

Guitar 2:
e|--4-4-4----4-4--4-4-4-4-4-|
B|--------4-----------------|
G|--------------------------|
D|--------------------------| x4
A|--------------------------|
E|--------------------------|


Verse 1:
C#  G#        Eb
go away i'm afraid
                        Bbm   Fm
with you there could be no  escape
C# G#      Eb
i  have no faith i've seen
                 Bbm      Fm   C#
truth and reason down the drain


Refrain:
      Eb                  Fm
but i cling to you for survival
      Eb                   Fm
and i know that you are my bible


Chorus:
C#           Eb             Fm
get out i'm scared, for the moment
      Eb          Fm Eb C#
but i know you'll be there
          Eb            Fm
well i'm scared for the moment
      Eb          Fm Eb C#
but i know you'll be there


Verse 2:
C#     G#             Eb
by the way things you say
freak me out i go 
    Bbm   Fm  C#
out of my head
  G#      Eb
i feel no shame
when i turn my back 
    Bbm   Fm C#
and walk away


(Repeat Refrain)
(Repeat Chorus)


Interlude: Eb--Fm-- x2


(Repeat Chorus)


C#           Eb             Fm
get out i'm scared, for the moment
      Eb          Fm Eb C#
but i know you'll be there


Outro: Guitar Solo
Eb--Fm--Eb--Fm-Eb-C#- x2,
Eb--Fm-Eb-C#- x4

Guitar 2: Solo
            Eb                  Fm               Eb        Fm  Eb     C#
e|-----------------------|-1----------1-|-3--1------------|-4-|-3-|-1----1-|
B|-4--4--4--4--4--4--2h4-|----2--1--4---|----------1-2--2-|---|---|----4---|
G|-----------------------|--------------|-------3---------|---|---|--------|
D|-----------------------|--------------|-----------------|---|---|--------|
A|-----------------------|--------------|-----------------|---|---|--------|
E|-----------------------|--------------|-----------------|---|---|--------|

            Eb                  Fm               Eb        Fm  Eb  C#  Fm  Eb  C#
e|-----------------------|-1----------1-|-3--1------------|-4-|-3-|-1-|-4-|-3-|-1-|
B|-4--4--4--4--4--4--2h4-|----2--1--4---|----------1-2--2-|---|---|---|---|---|---|
G|-----------------------|--------------|-------3---------|---|---|---|---|---|---|
D|-----------------------|--------------|-----------------|---|---|---|---|---|---|
A|-----------------------|--------------|-----------------|---|---|---|---|---|---|
E|-----------------------|--------------|-----------------|---|---|---|---|---|---|

               Eb                Fm  Eb  C#
e|-4----3----1------------------|-4-|-3-|-1-|
B|------------------------------|---|---|---|
G|----3----3----3-3-3-3-3-3-3-3-|---|---|---|
D|------------------------------|---|---|---|
A|------------------------------|---|---|---|
E|------------------------------|---|---|---|
Добавлено: 22.09.2013
Другие материалы по этой песне:
  • Аккорды и текст

Страница создана 04.06.2012
http://primanota.ru/gob/for-the-moment-chords.htm
Привет, Гость.
Предлагаем пройти революционный курс по гитаре.
Подарок от PrimaNota.Ru, забирай!