PrimaNota.ru - самый крупный в мире бесплатный архив песенных текстов, аккордов, табулатур и нот


Gob - Foot In Mouth Disease - аккорды и текст, видео

Регистрация Запомнить меня
Войти через:  Facebook Google Twitter Vk Yandex Mail.ru

Gob - Foot In Mouth Disease - аккорды и текст, видео

Печатать
Просмотров: 119
Foot In Mouth Disease
Gob
Gob
Foot In Mouth Disease
2003 Arista Records
Submitted by: paramore_fans@yahoo.com

Tuning: all songs are in Standard EADGBe

Tracklist:
01. Lemon-Aid
02. I've Been Up These Steps
03. Oh! Ellin
04. I Cut Myself Too
05. Fed Up
06. Ming Tran
07. When Life Gets Boring
08. Give Up The Grudge
09. Bones
10. This Evil World
11. I Hear You Calling
12. Bully
13. Cold Feet
14. Everybody's Getting Hooked Up

Bonus Tracks:
15.) Break (Going The Distance Soundtrack)
16.) My Favorite Shoplifter
17.) L.A. Song
18.) Sick With You
19.) Mr. Sandman (To be tabbed soon)
20.) Heavy Metal Shuffle (to be tabbed soon)

_______________________________________________

1.) Lemon-Aid

Key: B then C#

Tuning: Standard EADGBe

Chords used:
B -   x24442
F# -  244322
G#m - 466444
C#m - x46664
A -   x02220
E -   022100
Bbm - x13321
C# -  x46664
G# -  466544
F# -  244322


Intro:

Drumbeats: x2, G#m-F#-G#m-F#-

B--F#--E---G#m-F#-G#m-F#- x3, B-F#-E(hold)

Guitar 2:
   B    F#     E    G#m  F# G#m F#  B   F#  E
e|----|----|-------|---|---|---|--|---|---|---|
B|----|----|-------|---|---|---|--|---|---|---|
G|-13-|----|-8-9-8-|-9-|---|---|--|-8-|-6-|-4-|
D|--x-|----|-x-x-x-|-x-|---|---|--|-x-|-x-|-x-|
A|-11-|----|-6-7-6-|-7-|---|---|--|-6-|-4-|-2-|
E|----|----|-------|---|---|---|--|---|---|---|


Verse 1:
     B           C#m
I go out cause I live
      A     E
in an empty house
       B            C#m
And it rains and it rains
       A      E
and it never stops
      B            C#m
I'm a case in this place
    A     E
now mixed up with you
        B
I had a perfect fit
  C#m     A      E
until you called me up
        B
Then it didn't even
C#m      A   E
rain the sun came up
            B
Now there's nothing I can
C#m    A     E
do but fish around for you


Chorus 1:
  E              B
I wanna hear you talk
      F#    E
to me every night
   E             B
If anything goes wrong
        F#      E
you can make it right
  G#m
I never get the chance
        B
just to let you know
        E
Let you know GO


Intelrude: B-C#m-A-E- x2

Guitar 2:
     B       C#m      A     E
e|--------|--------|------|---|
B|--------|--------|------|---|
G|-8--8-8-|-9--9-4-|-6--6-|-4-|
D|-x--x-x-|-x--x-x-|-x--x-|-x-| x2
A|-6--6-6-|-7--7-2-|-4--4-|-2-|
E|--------|--------|------|---|


Verse 2:
    B              C#m
The lemon that you aid
        A      E
doesn't have a pulse
          B
Something that i'll never
C#m        A     E
get if you never tell
       B            C#m
No I'd never need a phone
       A     E
if you lived next door to me
          B
And if it feels good to
C#m       A         E
me that's something else
         B
You're a soft-head you
C#m         A    E
think I'm a motormouth
      B           C#m
But I never say a word
       A     E
that I don't hold dear to me


Chorus 2:
  E              B
I wanna hear you talk
      F#    E
to me every night
   E             B
If anything goes wrong
        F#      E
you can make it right
  G#m
I never get the chance
        B
just to let you know
        E
Let you know yeah know
       E              B
Yeah I wanna make you feel
          F#    E
something every night
   E             B
If anything goes wrong
     F#      E
I'll make it right
  G#m
I never get the chance
        B
just to let you
E
know Get go


Guitar Solo:
Bbm-G#-Bbm-G#-
C#-G#-F#--Bbm-G#- x2, Bbm--C#--F#--

Guitar 2: Solo, b means bend
   Bbm  G# Bbm G#    C#    G#        F#
e|-----|--|---|--|-------|----|----------------|
B|-----|--|---|--|-------|----|----------------|
G|-8b--|--|---|--|-9b-9b-|-9b-|-9b--9b-8p6---6-|
D|-----|--|---|--|-------|----|------------8---|
A|-----|--|---|--|-------|----|----------------|
E|-----|--|---|--|-------|----|----------------|

   Bbm G# Bbm  G#     C#        G#        F#
e|----|--|---|---|---------|---------|---------|
B|----|--|---|---|---------|---------|---------|
G|----|--|---|---|---------|-8p6-5h6-|---------|
D|----|--|-6-|---|-8p6-4h6-|---------|-8p6-4h6-|
A|----|--|---|-4-|---------|---------|---------|
E|----|--|---|---|---------|---------|---------|

Very fast sweeping here!!!
       Bbm            C#                F#
e|-------------|-------------|-------------13-------|
B|-7p6---9p6---|-7p6---9p6---|-7--9--7--------14----|
G|-----6-----6-|-----6-----6-|----------13-------13-|
D|-------------|-------------|----------------------|
A|-------------|-------------|----------------------|
E|-------------|-------------|----------------------|
       x2             x2


Bridge:
  F#           E     G#m
I hope that it won't fuck
                B
up now that you know
F#           E     G#m
Hope that it won't fuck
                B
up now that you know
F#           E     G#m
Hope that it won't fuck
                B
up now that you know
F#           E     G#m
Hope that it won't fuck
                B
up now that you know


Guitar 2: Bridge:
e|-17--17--17--17--17--17-|
B|------------------------|
G|------------------------|
D|------------------------|
A|------------------------|
E|------------------------|


(Repeat Chorus)


Outro:
  G#m F# G#m  F#  B   F#
I wan-na make you feel
E
 (every night)
  G#m F# G#m  F#  B   F#
I wan-na make you feel
 E
(every night)
  G#m F# G#m  F#  B   F# E G#m F# G#m F# B(hold)
I wan-na make you feel

__________________________________________________

2.) I've Been Up These Steps

Key: C#

Tuning: Standard EADGBe

Chords used:
Bbm - x13321
Fm -  133111
C# -  x46664
G# -  466544
Ebm - x68876
F# -  244322


Intro: Bbm-Fm-C#-G#-Ebm-- x2


Verse 1:
           Bbm       Fm
It was the worst time
          C#
The first time
   G#        Ebm
It ever went sour
Things fell
apart too soon
         Bbm     Fm
I was so let down
  C#
I learned then
   G#       Ebm
To never go back
I've been once
Only once


Chorus 1:
F#           Ebm
  Never reconnect to me
F#
  It's better done
Ebm
better see whoa
F#
  Sinking so I'll
Ebm
get out alive
F#
  It could be the
Ebm
death of me Whoa


Interlude: Bbm-Fm-C#-G#-Ebm- x2


Verse 2:
           Bbm   Fm
There's no reason
   C#
to hold on
  G#         Ebm
I never fall down
Cause I never get dizzy
         Bbm
It might be better
Fm    C#        G#        Ebm
  Whatever It's nothing I can't
wash my hands of anyhow


Chorus 2:
F#        C#         G#
  Never reconnect to me
F#
  It's better done
C#     G#
better see whoa
F#
  Sinking so I'll
C#       G#
get out alive
F#
  It could be the
C#       G#
death of me Whoa


Interlude: Bbm-Fm-C#-G#-Ebm-- x2


Verse 3:
        Bbm    Fm
It's so useless
   C#
So useless
    G#         Ebm
The burn'll be there
I'm not fooling myself
        Bbm      Fm
I won't regret it
   C#
Forget it
     G#       Ebm
I'll never go back
I'm never coming back
Bbm          Fm         C#
   I've been held (been held)
     G#       Ebm
Held down too long
It won't hold very long
Bbm          Fm         C#
   I've been held (been held)
     G#       Ebm
Held down too long
It's nothing that
I can't escape


(Repeat Chorus 2)


Guitar Solo: F#--Ebm-- x4

Guitar 2: Solo
         F#               Ebm              F#                Ebm
e|----------------|----------------|----------------|------------------|
B|----------------|----------------|----------------|------------------|
G|----------------|----------------|----------------|-------8--------8-|
D|----------------|----------------|----------------|-------8--------8-|
A|---------1-4--4-|-6-6-6---4-6--6-|---------1-4--4-|-6-6-6-6--6-6-6-6-|
E|-2-2-2-4--------|-------6--------|-2-2-2-4--------|------------------|

         F#               Ebm              F#               Ebm
e|----------------|----------------|----------------|-----------------|
B|----------------|----------------|----------------|-----------------|
G|----------------|----------------|----------------|-8-8-8-8-8-8-8-8-|
D|----------------|----------------|----------------|-8-8-8-8-8-8-8-8-|
A|---------1-4--4-|-6-6-6---4-6--6-|---------1-4--4-|-6-6-6-6-6-6-6-6-|
E|-2-2-2-4--------|-------6--------|-2-2-2-4--------|-----------------|


Interlude: Bbm-Fm-C#-G#-Ebm-


Verse 4:
           Bbm       Fm
It was the worst time
          C#
The first time
   G#        Ebm
It ever went sour
I've been once
Only once


(Repeat Chorus 2)


Chorus 3:
F#          Ebm
  Never reconnect to me
F#
  It's better done
Ebm
better see whoa
F#           Ebm
  Never reconnect to me whoa
F#
  It could be the
Ebm
death of me Whoa


Outro: Bbm-Fm-C#-G#-Ebm(hold)

_____________________________________________

3.) Oh! Ellin

Key: C then D

Tuning: Standard EADGBe

Chords used:
Am - x02210
F -  133211
C -  x32010
G -  320033
Bm - x24432
D -  xx0232
A -  x02220


Intro:
Am        F             C G
oh! Ellin what can i do?
Am        F             C G
oh! Ellin what can i do?


Chorus 1:
Am        F
oh! Ellin what can i do?
C
  there is nothing
 G
aside from you
Am        F
oh! Ellin what can i do?
C
  there is nothing
 G
aside from you


Interlude: Am--

Guitar 2:
e|-----------10-8----10-8----|
B|----------------10------10-|
G|---------------------------|
D|-7-7-7-7-7-----------------|
A|-7-7-7-7-7-----------------|
E|-5-5-5-5-5-----------------|


Verse 1:
F G    F  G   F    G
i hate to say i'm starting
F G          G Am
a-gain to try    to get you
          F    F  G
off of my mind i  must
F G   F    G       F
admit it's so hard to
G           G Am
do oh Ellin!    with no you
      F    F G    F
by my side i have the
G      F  G       F
chance to land on my
G           G Am
own two feet    and keep
my chin off the
F      F   G   F
ground but now you're
G    F G          F G
gone i bet myself up
        G Am
about it    it sucks
             F    Am
without you around  it
sucks when you're not
 G
around


Chorus 2:
Am       F
Oh Ellin what
         C
can i do? there is nothing
 G             Am
aside from you oh!
      F
Ellin what can i lose?
C                G
there's nothing aside on you
Am     F     C     G
  oh oh oh oh oh oh oh oh

Guitar 2: at "oh oh"
e|------------|
B|------------|
G|-9--9--9--9-|
D|-x--x--x--x-|
A|-7--7--7--7-|
E|------------|


Verse 2:
 G(hold)
i trace your
steps but i get lost i
   Am
bet  i'ts what you had
   F    F   G     F
in mind and can't you
G   F    G      F   G
see that all is not well
         G Am
oh! Ellin    not since you
          F    F G
left me behind i waste
F G   F    G
a-way it's miserable
F   G           G Am
here it's stupid    to
               F
even try to pretend
  F     G    F    G
because when you slip
F  G       F   G
my mind i start to
     G Am
panic    i'm scared to lose
     F    Am
you again i'm scared
               F
i'll lose you again


Chorus 3:
Am       F
Oh Ellin what
         C
can i do? there is nothing
 G             Am
aside from you oh!
      F
Ellin what can i lose?
C                G
there's nothing aside on you
Am       F
Oh Ellin what
         C
can i do? there is nothing
 G             Am
aside from you oh!
      F
Ellin what can i lose?
C                G
there's nothing aside on you


Guitar Solo: Modulate from C to D
Bm--G--Bm--D-G-A- x3, Bm--G--A--F----

Guitar 2: Solo
       Bm            G            Bm            D      G     A
e|--------------|-------9-|-9--9-----------|---------|----|------|
B|--------10-12-|-10-12---|-------12-10----|---------|----|------|
G|-11--11-------|---------|-------------11-|-11-10-9-|----|----9-|
D|--------------|---------|----------------|---------|-12-|-12---|
A|--------------|---------|----------------|---------|----|------|
E|--------------|---------|----------------|---------|----|------|

           Bm                   D                   Bm
e|--------------------|-10---------------|-14--14--14-13-12-10-|
B|----10-11-12--10-12-|-----12p10h12--12-|---------------------|
G|-11-----------------|------------------|---------------------|
D|--------------------|------------------|---------------------|
A|--------------------|------------------|---------------------|
E|--------------------|------------------|---------------------|

      G          A               Bm                    G
e|----------|---------|----------------------|--------------------|
B|-10/12----|-10/12---|-12/14------12/14-----|-15-14-12-----12-14-|
G|----------|---------|----------------------|----------14--------|
D|--------9-|-------9-|--------11---------11-|--------------------|
A|----------|---------|----------------------|--------------------|
E|----------|---------|----------------------|--------------------|

          A                                  F
e|--------------------|----------------------------------------------|
B|-15-14-12--------12-|-13p12h13p12h13p12h13p12h13p12h13p12h13p12p10-|
G|----------14--14----|----------------------------------------------|
D|--------------------|----------------------------------------------|
A|--------------------|----------------------------------------------|
E|--------------------|----------------------------------------------|


Interlude: Am--F--C--G-- x2


Chorus 4:
Am        F
oh! Ellin what can i do?
C
  there is nothing
 G
aside from you
Am        F
oh! Ellin what can i do?
C
there is nothing
 G            Am F
aside from you
C                  G            Am F
 there is nothing aside from you
C                  G(hold)
 there is nothing aside from you


Guitar 2: "aside from you"
e|---------------------------|
B|---------------------------|
G|-5-5-5-5-5-5-5-5-----------|
D|-x-x-x-x-x-x-x-x-----------|
A|-3-3-3-3-3-3-3-3-----------|
E|---------------------------|

Gutiar 3: "aside from you"
e|---------------------------|
B|---------------------------|
G|-9-9-9-9-9-9-9-9-----------|
D|-x-x-x-x-x-x-x-x-----------|
A|-7-7-7-7-7-7-7-7-----------|
E|---------------------------|


Chorus 5:
Am       F
Oh Ellin what
         C
can i do? there is nothing
 G             Am
aside from you oh!
      F
Ellin what can i lose?
C                  G
  there's nothing aside on you
Am       F
Oh Ellin what
         C
can i do? there is nothing
 G             Am
aside from you oh!
      F
Ellin what can i lose?
C                G
there's nothing aside from you
Am        F
oh! Ellin what can i do?
C                G
there's nothing aside from you
Am        F
oh! Ellin what can i do?
C                G       Am(hold)
there's nothing aside from you

____________________________________________

4.) I Cut Myself Too

Key: Eb, C, Bb

Tuning: Standard EADGBe

Chords used:
Eb - x68886
F -  133211
Cm - x35543
G# - 466544
Bb - x13331
C -  x32010
G -  320003
Am - x02210
F -  133211
Bb - x13331


Intro: Eb--

Guitar 2:
                      Eb
e|-------------------------------------------|
B|-------------------------------------------|
G|-8-8-8-8--10-10-10-10--12-12-12-12--15--13-|
D|-x-x-x-x---x--x--x--x---x--x--x--x---x---x-|
A|-6-6-6-6---8--8--8--8--10-10-10-10--13--11-|
E|-------------------------------------------|

Cm--G#-Bb- x4

Guitar 2:
         Cm           G#       Bb
e|-4--4-3--4--4-3-|--------|--------|
B|----------------|-4--4-4-|-6--6-6-|
G|----------------|--------|--------|
D|----------------|--------|--------| x4
A|----------------|--------|--------|
E|----------------|--------|--------|


Verse 1:
Eb        F       Cm
  Are you holding out?
        G#
Are you satisfied of
          Eb
making confessions?
    F             Cm
I'm moving on and you're
              G#
just waiting around
Eb      F        Cm
  While you were down
    G#
And looking for
           Eb
someone to follow
   F
Misunderstood I
Cm             G#
understood you well


Chorus 1:
               C         G
If it helps to ease your mind
           Am               F
You're not putting me out tonight
                    C         G
Don't you think you need some time?
        Am               F
I'm not putting you in tonight
               C         G
If it helps to ease your mind
           Am               F
You're not putting me out tonight
                    C         G
Don't you think you need some time?
        Am               F
I'm not putting you in tonight


Verse 2:
Eb       F        Cm
  And it helps to know
   G#
To know you're not alone
         Eb
your not fucked up
     F
Just waiting patient
Cm              G#
waiting for the call
Eb    F         Cm
  And just like you
        G#
Now and then I cut
          Eb
myself to pieces
       F
And it rains it pours blood
    Cm               G#
but doesn't make any sense


Chorus 2:
               C         G
If it helps to ease your mind
           Am               F
You're not putting me out tonight
                    C         G
Don't you think you need some time?
        Am               F
I'm not putting you in tonight
               C         G
If it helps to ease your mind
           Am               F
You're not putting me out tonight
                    C         G
Don't you think you need some time?
        Am
I'm not putting you in tonight


Interlude: Bb--G#-- x3

Guitar 2:
e|---------------------------------------|
B|-------6-6-4-4-4-6-6-6-----------------|
G|-3-3-3-----------------1-1-1-1-1-1-1-1-|
D|---------------------------------------| x2
A|---------------------------------------|
E|---------------------------------------|

e|-----------------------4-4-4-4-4-4-4-4-|
B|-------6-6-4-4-4-6-6-6-----------------|
G|-3-3-3---------------------------------|
D|---------------------------------------|
A|---------------------------------------|
E|---------------------------------------|


Bridge:
Eb         G#       Bb     Eb
  Now your crushing like cement
       G#        Bb      Cm
Do you find your perfect fit?
     G#       Bb       Cm
And stand out from the rest
G#       Bb      Cm  Eb(hold)
Shine on you the best


Verse 3:
Eb        F        Cm
  Well we all fall down
      G#
Is it better now or
              Eb
are you still broken?
   Bb            Cm
Im moving on and you're
               G#
still waiting around


Chorus 3:
               C         G
If it helps to ease your mind
           Am               F
You're not putting me out tonight
                    C         G
Don't you think you need some time?
        Am               F
I'm not putting you in tonight
               C         G
If it helps to ease your mind
           Am               F
You're not putting me out tonight
                    C         G
Don't you think you need some time?
        Am               Bb
I'm not putting you in tonight


Outro:
               C         G
If it helps to ease your mind
           Am               Bb
You're not putting me out tonight
               C         G
If it helps to ease your mind
           Bb
You're not putting me out
                     F(hold)
I'm putting you in tonight

__________________________________________________

5.) Fed Up

Key: G#

Tuning: Standard EADGBe

Chords used:
Fm - 133111
C# - x46664
Eb - x68886
Cm - x35543
G# - 466544


Intro: Piano
    Cm      C#      Eb     Cm         C#         G#
e|------|--------|------|------|-4--4---4---6-|-8------|
B|----4-|----6-4-|------|----4-|------4---4---|--------|
G|------|--------|----6-|-5----|--------------|----6---|
D|------|--------|------|------|--------------|--------|
A|-3----|-4------|-6----|-3----|-4------------|--------|
E|------|--------|------|------|--------------|-4------|

Guitar: Distortion
[------------------------------------------------------------------------C#-G#-C#-G#-Fm-Eb-C#-G#
C#-G#-Fm-Eb-C#-G#--|

Piano: Distortion:
e|-11--9--8--------|
B|-----------11--9-|
G|-----------------|
D|-----------------| x3
A|-----------------|
E|-----------------|


Verse 1:
Fm                  Eb
  With tunnel vison on
Fm                 Eb
  You are the only one
Fm
  All made up
Eb
  Stare straight up
Fm                     Eb
  Walk straight into a wall


Interlude: Fm--Eb-- x2

Guitar 2: Interlude
        Fm                 Eb
e|---------------|--------------------|
B|---------------|--------------------|
G|-10--13-12--13-|-8--13-12--6h8h8h10-|
D|--x---x--x---x-|-x---x--x-----------| x2
A|--8--11-10--11-|-6--11-10-----------|
E|---------------|--------------------|


Verse 2:
Fm                     Eb
  See this is all your fault
Fm                          Eb
  You take more the you can hold
Fm
  You want this one
Eb
  You won't give up
Fm                          Eb
  You'll suck it through a straw


Chorus:
           C#  G#           C#  G#
til you're full  til you're full
               Fm
It's true that you would be fed
        Eb                       C#
up with you if you knew what you are
           C#  G#       C#  G#
til you're full  of yourself
               Fm
It's true that you would be fed up
     Eb                       C#
with you if you knew what you are


Interlude: Fm--Eb-- x2

Guitar 2:
e|----1------1------|
B|-4----1-4----1--4-|
G|------------------|
D|------------------|
A|------------------|
E|------------------|


Verse 2:
Fm                      Eb
  It's different then before
Fm                    Eb
  You don't listen anymore
Fm                Eb
  You're impatient  you're inflated
Fm                     Eb
  And I know you wont stop


Guitar 2: at "you're impatient"
e|-8h9p8---|
B|-------9-|
G|---------|
D|---------| x3
A|---------|
E|---------|


(Repeat Chorus)


Intelrude:
[-|ch]Fm[/ch]-Eb-Fm-Eb-Fm-Eb-Fm-Eb-C#-G#-Fm-Eb
[-|ch]Fm[/ch]-Eb-C#-G#-Fm-Eb-C#-G#-C#-G#-Fm-Eb
[-|ch]Fm[/ch]-Eb-C#-G#-Fm-Eb-C#(hold)

Guitar 2:
e|-------------------------------|
B|-1--2-1--1--2-1--4--2--1-----4-|
G|--------------------------1----|
D|-------------------------------| x8
A|-------------------------------|
E|-------------------------------|

Guitar 3:
e|----8-------|-----------8------------------8-------|
B|-------9----|-9-----11-----9-----9-----11-----9----|
G|-8--------8-|----8------------8-----8------------8-|
D|-6----------|--------------------------------------|
A|-8----------|--------------------------------------|
E|------------|--------------------------------------|
                                  x8


Guitar Solo: faster beat
Fm--Eb-- x4

Guitar 2: Solo
         Fm                    Eb
e|-3-3-3-3-1-3-3-3-1-|-4-4-4-3-4-4-3-4-4-6-|
B|-------------------|---------------------|
G|-------------------|---------------------|
D|-------------------|---------------------|
A|-------------------|---------------------|
E|-------------------|---------------------|
         x2

         Fm                     Eb
e|-6-6-6-4-4-3-3-3-4-|---------------6-8-8-8-|
B|-------------------|-4-4-4-4-4-4-4---------|
G|-------------------|-----------------------|
D|-------------------|-----------------------|
A|-------------------|-----------------------|
E|-------------------|-----------------------|
         x2

            Fm                     Eb
e|-8-8-8-8---------------|-8-8-8-8-------------|
B|---------8-8-8-8-9-8-9-|---------8-8-8-9-8-9-|
G|-----------------------|---------------------|
D|-----------------------|---------------------| x2
A|-----------------------|---------------------|
E|-----------------------|---------------------|
           x2


(Repeat Chorus twice)

______________________________________________

6.) Ming Tran

Key: G#, B, C#

Tuning: Standard EADGBe

Chords used:
Fm -  133111
C# -  x46664
G# -  466544
G#m - 466444
E -   022100
F# -  244322
C#m - x46654
Bbm - x13321


Intro:

Plucking:
     Fm         C#        Fm        C#       G#
e|---------|---------|---------|---------|---------|
B|-----1---|---------|-----1---|---------|---------|
G|---1---1-|-----5---|---1---1-|-----5---|-----5---|
D|-3-------|---6---4-|-3-------|---6---6-|---6---6-|
A|---------|-4-------|---------|-4-------|---------|
E|---------|---------|---------|---------|-4-------|
     x2         x2        x2

     Fm         C#        Fm     C#
e|---------|---------|---------|---|
B|-----1---|---------|-----1---|---|
G|---1---1-|-----5---|---1---1-|-6-|
D|-3-------|---6---4-|-3-------|-6-|
A|---------|-4-------|---------|-4-|
E|---------|---------|---------|---|
     x2         x2        x2

Distortion: G#m--E--G#m--E--F#- x2


Verse 1:
C#m        E
Flat on my face I
B           F#
see what it takes
   C#m             E
To cut through the bullshit
   B          F#
To cut to the chase
    C#m        E
and when I get up
B          F#
I won't forget
    C#m            E
the place that you left me
    B              F#
the place that you left


Chorus:
G#m         E
Better run away run away
          G#m
cause you know I can't
E            F#
wait for the next time
    G#m         E
You better run away run away
    G#m
for nothing's gonna
E            F#
save you the next time


Verse 2:
    C#m          E
And when I catch up
B          F#
it will be great
C#m        E
I'll set a trap for you
B            F#
I just can't wait
C#m          E
One of these days
B            F#
one of these days
C#m            E
My friend Ming tran will
         B            F#
kick you right in the face


(Repeat Chorus twice)


Breakdown: C#--

Guitar 2:
E|-1-1-2-2--|
B|-2-2-2-2--|
G|-1-1-1-1--|
D|-------------------| x4
A|-------------------|
E|-------------------|


Interlude: Bbm--F#--Bbm--F#-G#- x2

Guitar 2:
e|-1-1-2-2-|---------9-8---|
B|-2-2-2-2-|-9-7-6-7-----9-|
G|-1-1-1-1-|---------------|
D|---------|---------------|
A|---------|---------------|
E|---------|---------------|
     x4


Bridge:
C#m          E
One of these days
     B        F#
I'll get my revenge
C#m            E
My friend Ming tran will
         B            F#
kick you right in the face


Guitar Solo: C#m-E-B-F#- x2

Guitar 2: Solo
     C#m     E      B     F#
e|---------|---|---------|--|
B|-4-5-7---|---|-4-5-7---|--|
G|-------4-|---|-------6-|--|
D|---------|---|---------|--|
A|---------|---|---------|--|
E|---------|---|---------|--|

     C#m     E      B     F#
e|---------|---|---------|--|
B|-4-5-7---|---|-4-5-7---|--|
G|-------4-|---|-------6-|--|
D|---------|---|---------|--|
A|---------|---|---------|--|
E|---------|---|---------|--|

Guitar 3: Solo
   C#m      E      B     F#
e|-----|---------|---|---------|
B|-----|-4-5-7---|---|-4-5-7---|
G|-----|-------4-|---|-------6-|
D|-----|---------|---|---------|
A|-----|---------|---|---------|
E|-----|---------|---|---------|

   C#m      E      B   F#
e|-----|---------|---|---|
B|-----|-4-5-7---|---|---|
G|-----|-------4-|---|---|
D|-----|---------|---|---|
A|-----|---------|---|---|
E|-----|---------|---|---|


(Repeat Chorus twice)


Outro: G#m(hold)

__________________________________________

7.) When Life Gets Boring

Key: F#

Tuning: Standard EADGBe

Chords used:
Ebm -  x68876
B -    x24442
F# -   244322
C# -   x46664
G#m -  466444
E -    022100
Bbm -  x13321
B/Eb - x698xx


Verse 1:
Ebm    B        F#
   She creeps into my head
Ebm   B    F#
   So many mornings
Ebm        B    F#
   What am I supposed to do
Ebm     B         F#
   When life gets boring
Ebm     B   F#
   This fixation with her
Ebm   B         F#
   It goes much deeper
Ebm     B      F#
   Than just a photograph
Ebm     B       F#
   Wish I could keep her


Refrain:
      G#m
Can't get her off my mind
E
Happens all the time
    Ebm                G#m
I'm turning everything down


Chorus:
     F# Bbm B
Well I
F#        Bbm B E     B/Eb B
should've known better
(Repeat)


Interlude: Ebm-B-F#-- x2


Verse 2:
Ebm  B         F#
   I watch her shop for clothes
Ebm   B     F#
   To value vintage
Ebm      B     F#
   Stare from across the room
Ebm    B         F#
   She makes her purchase
Ebm    B       F#
   The wheel inside my head
Ebm     B      F#
   Has started rolling
Ebm     B        F#
   It's going to take me away
Ebm     B        F#
   It's going to take me away


(Repeat Refrain and Chorus)
(Repeat Refrain twice)


Guitar Solo: Ebm-B-F#-- x4

Guitar 2: Solo
e|-------------------------------|
B|-------------------------------|
G|-3--3-4-3-3--3-4-6-6-----6-----|
D|---------------------4-4---4-4-| x4
A|-------------------------------|
E|-------------------------------|


Bridge:
F#             G#m
  I'll keep my distance
E                F#
  I'm better off putting
this behind me
             G#m
I'm overdrawn   I withdrew
E              C#
  I'm down and out and
thanks to you
F#             G#m
  I'll keep my distance
E                F#
  I'm better off putting
this behind me
             G#m
I'm overdrawn   I withdrew
E              C#
  I'm down and out and
thanks to you


(Repeat Chorus until fade)

_____________________________________________

8.) Give Up The Grudge

Key: Eb

Tuning: Standard EADGBE

Chords used:
Bb -   x13331
G# -   466544
Gm -   355333
Fm -   133111
Eb -   x68886
Cm -   x35543
B -    x24442
Bb/D - x587xx


Intro:

Distortion: Eb-C#-Cm-Bb-G#-Gm x2

Guitar 2:
  Eb   C#   Cm   Bb   G#   Gm
e|---|----|----|----|----|----|
B|---|----|----|----|----|----|
G|-8-|-10-|-12-|-13-|-12-|-10-|
D|-x-|--x-|--x-|--x-|--x-|--x-|
A|-6-|--8-|-10-|-11-|-10-|--8-|
E|---|----|----|----|----|----|

Silence:
        Eb
e|--------------|
B|--------------|
G|-----8------8-|
D|--------------| x4
A|-6-6---6-6----|
E|--------------|


Verse 1
              Eb
Don't make me listen to the
stupid broken record again
The needle's skipping and
                         Bb  Eb
repeating never reaching the end
You know you're bitching and
complaining like you've got it so tough
We're sick of all your crying
              Bb   Eb
will you ever shut up?


Refrain:
        G#                 Eb
So keep bleeding your fake blood
     G#          Eb
till no one even sees it
   Gm         G#                Eb
If that's the best you can make up
   B                  Bb
at least act like you mean it


Chorus 1:
Eb          G#
Give up the grudge
Eb                G#
Shut your fucking mouth
Eb            G#
why you gotta judge
     Cm           Bb
everybody but yourself
Eb           G#
Take a look around you
      Eb           G#
There ain't nobody home
Eb         G#
I may be a loser
       Cm        Bb   Eb-- x4 Bb-Eb--Bb/D-Eb-
But at least I'm not alone


Verse 2:
Eb
  Your mercedes won't start
Yeah that's a crying shame
I guess 90K a year buys
        Bb     Eb
nothing but complaints
    Eb
The people in my neighborhood
think that I'm a threat
While the boss gets richer
                Bb Eb
they get deeper in debt!


(Repeat Refrain)


Chorus 2:
Eb          G#
Give up the grudge
Eb                G#
Shut your fucking mouth
Eb            G#
why you gotta judge
     Cm           Bb
everybody but yourself
Eb           G#
Take a look around you
      Eb           G#
There ain't nobody home
Eb         G#
I may be a loser
       Cm        Bb
But at least I'm not alone


Guitar Solo: Eb---Bb-Eb- x4

Guitar 2: Solo:
       Eb      Bb             Eb             Bb   Eb
e|---------3-|----|-3h4p3----------3--3h4-|-3---|---|
B|-4---4-6---|----|-------6-4--4-6--------|---6-|-4-|
G|-----------|----|-----------------------|-----|---|
D|-----------|----|-----------------------|-----|---|
A|-----------|----|-----------------------|-----|---|
E|-----------|----|-----------------------|-----|---|

           Eb              Bb               Eb              Bb   Eb
e|-11--11-13-15--15-13-|-11-13-|-11---11--11-11-9--8--9-8-|----|----|
B|---------------------|-------|--------------------------|-11-|----|
G|---------------------|-------|--------------------------|----|-8--|
D|---------------------|-------|--------------------------|----|----|
A|---------------------|-------|--------------------------|----|----|
E|---------------------|-------|--------------------------|----|----|

Very fast Sweeping!!!: Eb-C#-Cm-Bb-G#-Gm

Guitar 2: Sweeping
     Eb       C#     Cm
e|-----11-|-----11-|----|
B|-11-----|--9-----|-8--|
G|--------|--------|----|
D|--------|--------|----|
A|--------|--------|----|
E|--------|--------|----|

         Very fast sweeping part
E|-16p15p11----11-------------------------|
A|----------14----14p13p11h13h14p13p11----|
G|-------------------------------------13-|
D|----------------------------------------|
A|----------------------------------------|
E|----------------------------------------|


Chorus 3:
Eb          G#
Give up the grudge
Eb                G#
Shut your fucking mouth
Eb            G#
why you gotta judge
     Cm           Bb
everybody but yourself
Eb           G#
Take a look around you
      Eb           G#
There ain't nobody home
Eb         G#
I may be a loser
       Cm        Bb
But at least I'm not alone
Eb          G#
Give up the grudge
Eb                G#
Shut your fucking mouth
Eb            G#
why you gotta judge
     Cm           Bb
everybody but yourself
Eb           G#
Take a look around you
      Eb           G#
There ain't nobody home
Eb         G#
I may be a loser
       B              Bb
But at least I'm not alone
But at least I'm not alone


Chorus 4:
Eb          G#
Give up the grudge
Eb                G#
Shut your fucking mouth
Eb            G#
why you gotta judge
     Cm           Bb
everybody but yourself
Eb           G#
Take a look around you
      Eb           G#
There ain't nobody home
Eb         G#
I may be a loser
       Cm        Bb
But at least I'm not alone
Eb          G#
Give up the grudge
Eb                G#
Shut your fucking mouth
Eb            G#
why you gotta judge
     Cm           Bb
everybody but yourself
Eb           G#
Take a look around you
      Eb           G#
There ain't nobody home
Eb         G#
I may be a loser
       Cm        Bb
But at least I'm not alone
Eb          G#
Give up the grudge
Eb                G#
Shut your fucking mouth
Eb            G#
why you gotta judge
     Cm           Bb
everybody but yourself
Eb           G#
Take a look around you
      Eb           G#
There ain't nobody home
Eb         G#
I may be a loser
       Cm        Bb
But at least I'm not alone


Outro: Eb-C#-Cm-Bb-G#-Gm

________________________________________

9.) Bones

Key: C#

Tuning: Standard EADGBe

Chords used:
Bbm - x13321
C# -  x46664
Ebm - x68876
F# -  244322


Verse 1:
Bbm       C#
I've been through
     Ebm
here many times
    Bbm    F#         C#
But you've locked the door
    Bbm F#  C#
You wan-ted more
Bbm         C#        Ebm
Should have seen this coming
            Bbm F#
My pictures off the
C#        Bbm F#    C#
wall with no  phone call


Chorus 1:
Bbm       C#     F#
Bones and broken homes
Bbm       C#     F#
Bones and broken homes


Verse 2:
Bbm       C#
I've been through
     Ebm
here many times
        Bbm  F# C#
But the path is gone
        Bbm F#    C#
There's something wrong
Bbm    C#      Ebm
Didn't leave a letter
         Bbm   F# C#
When you wrote me off
     Bbm F#    C#
with no  phone call


Chorus 2:
Bbm       C#     F#
Bones and broken homes
Nowhere to lie down
Bbm       C#     F#
Bones and broken homes
Just rest my eyes now
Bbm       C#     F#
Bones and broken homes
I'll be alright yeah
Bbm       C#     F#
Bones and broken homes
Yeah


Guitar Solo: Bbm--C#-- x8

Guitar 2: Solo
e|-1-1-1-4-4-4-1-1-1-4-4-1-1-1-1-1-1-------------|
B|-----------------------------------2-2-2-2-2-2-|
G|-----------------------------------------------|
D|-----------------------------------------------| x2
A|-----------------------------------------------|
E|-----------------------------------------------|


Bridge:
Bbm       C#           Ebm
I've been through here many times
Bbm       C#           Ebm
I've been through here many times
Bbm       C#           Ebm
I've been through here many times
Bbm       C#           Ebm
I've been through here many times
Bbm       C#           F#        G#
I've been through here many times
Bbm       C#           Ebm       F#
I've been through here many times


(Repeat Chorus 2)


Outro:
Bbm       C#     F#(hold)
Bones and broken homes

_________________________________________________

10.) This Evil World

Key: C# then D

Tuning: Standard EADGBe

Chords used:
Bbm - x13321
F# -  244322
C# -  x46664
G# -  466544
Ebm - x68876
Fm -  133111
F/A - x032xx
B -   x24442
Eb -  x68886
G -   320033
D -   xx0232
Em -  022000
Bm -  x24432
C -   x32010
E -   022100


Intro: Bbm--


Verse 1:
Bbm          Fm
   This evil world
Is punishing you from
    F#              C#
the things that you say
    F#         C#
You carry your weight
     G#
But I  I don't know
      Fm
it's about you
All the time
Bbm             Fm
   It's easy to fall
Well you're going up and
        F#          C#
they're pulling you down
     F#            C#
They would get you down
          G#
But you're  You're constantly
Fm
fighting anyhow
Bbm               Fm
   You're sold so quickly
You drop to your knees
      F#          C#
to be part of the scene
    F#          C#
You know what I mean and I'm
G#              Fm
  I'm trying to keep you grounded


Chorus 1:
F#          C#
  Where are you?
              Ebm
Where are you now?
        Bbm    B        F#
You're slowly slipping away
          C#
Where are you?
              Ebm
What have you done?
        Bbm    B        F#
You're slowly slipping away
          C#
Where are you?
          Ebm
Where are you now?


Interlude: F/A--


Verse 2:
Bbm                  Fm
   One day you'll be found
Crawling around with
  F#            C#
a knife in your back
F#            C#
Someone keeps track and you
G#              Fm
  You were only human
                Bbm
But now you're square
                 Fm
You're life's so empty
You throw a fit if you
F#               C#
don't get you're way
       F#
You're going
  C#
insane and I'm
G#
  I'm right here to
Fm
watch it go down


Chorus 2:
F#          C#
  Where are you?
              Ebm
Where are you now?
        Bbm    B        F#
You're slowly slipping away
          C#
Where are you?
              Ebm
What have you done?
        Bbm    B        F#
You're slowly slipping away
          C#
Where are you?
          Ebm
Where are you now?
        Bbm    B        F#
You're slowly slipping away
          C#
Where are you?
              Ebm
What have you done?
        Bbm    B        F#  Ebm Bbm B
You're slowly slipping away a---way


Guitar Solo: F#--C#--Ebm--Bbm-B--|
F#--C#--Ebm--Bbm-B---------------|
F#--C#--Eb--Bbm-B----------------|
F#--C#--Ebm----------------------|Bbm-B(hold)

Guitar 2: Solo
      F#          C#        Ebm        Bbm         B
e|-----------|---------|-----------|----------|---------|
B|-----------|---------|-----------|----------|---------|
G|-------6-8-|-10--6-8-|-10--3---6-|-10-10-10-|-8--10-8-|
D|-4--4--x-x-|--x--x-x-|--x--x---x-|--x--x--x-|-x---x-x-|
A|-4--4--4-6-|--8--4-6-|--8--1---4-|--8--8--8-|-6---8-6-|
E|-2--2------|---------|-----------|----------|---------|

      F#           C#         Ebm        Bbm         B
e|-----------|------------|----------|----------|---------|
B|-----------|------------|----------|----------|---------|
G|-6--6--6-8-|-10--6--6-8-|-3--3-6-3-|-10-10-10-|-8--10-8-|
D|-x--x--x-x-|--x--x--x-x-|-x--x-x-x-|--x--x--x-|-x---x-x-|
A|-4--4--4-6-|--8--4--4-6-|-1--1-4-1-|--8--8--8-|-6---8-6-|
E|-----------|------------|----------|----------|---------|

       F#            C#            Eb           Bbm          B
e|-----------|----------------|-----------|-------------|-11-13-11-|
B|-----------|----------------|-----------|-------------|----------|
G|-6---13-15-|-18--15--13--15-|-12--13-12-|-10-10-10-10-|----------|
D|-x----x--x-|--x---x---x---x-|--x---x--x-|-------------|----------|
A|-4---11-13-|-16--13--11--13-|-10--11-10-|-------------|----------|
E|-----------|----------------|-----------|-------------|----------|

      F#        C#          Ebm      Bbm   B
e|-9------|------------|----------|------|---|
B|--------|------------|----------|------|---|
G|----6-8-|-10--6--6-8-|-3--3-6-3-|-3----|-4-|
D|----x-x-|--x--x--x-x-|-x--x-x-x-|-x--3-|-x-|
A|----4-6-|--8--4--4-6-|-1--1-4-1-|-1--x-|-2-|
E|--------|------------|----------|----1-|---|


Verse 3:
Bbm                Fm
   Don't act so surprised
You pay for your sins
        F#          C#
and you tested your fate
F#           C#
Now it's too late
  F#          Ebm
Objection overruled


Chorus 3: modulate from C# to D
F#          D
  Where are you?
              Em
Where are you now?
        Bm     C        G
You're slowly slipping away
          D
Where are you?
              Em
What have you done?
        Bm     C        G
You're slowly slipping away
          D
Where are you?
          Em
Where are you now?
        Bm     C        G
You're slowly slipping away
          D
Where are you?
              Em
What have you done?
        Bm     C
You're slowly slipping away


Outro:
G D E        Bm     C
     You're slowly slipping away
G D E        Bm     C
     You're slowly slipping away
G D E        Bm     C
     You're slowly slipping away
G D E Bm C Bm(hold)

________________________________________

11.) I Hear You Calling

Key: B

Tuning: Standard EADGBe

Chords used:
B -   x24442
C#m - x46654
G#m - 466444
F# -  244322
E -   022100


Intro: B--C#m-G#m--E--G#m--E--G#m--E--F#-

Guitar 2:
          B         C#m       G#m              E
E|----------------|-----|--------------|---------------|
B|----------------|-----|--------------|---------------|
G|----------------|-1---|--------------|---------------|
D|---1-4-1-4--4-1-|-----|-4--1-1---1---|-------------1-|
A|-2--------------|-----|--------4---4-|-2-2---2-2-----|
E|----------------|-----|--------------|-----4-----4---|

    G#m           E           G#m           E             F#
e|--------|----------------|--------|----------------|----------|
B|--------|----------------|--------|----------------|----------|
G|--------|----------------|--------|----------------|----------|
D|----1---|--------------1-|----1---|--------------1-|----------|
A|--4---4-|--2-2---2-2-----|--4---4-|--2-2---2-2-----|--4--4--2-|
E|--------|------4-----4---|--------|------4-----4---|----------|


Verse 1:
B
  i've seen you now about
    C#m    G#m
the fourth time baby
        E
but you know that
                    G#m
i've got nothing to say
       E
its so charming to look on
     G#m           E
your face but your eyes
                     F#
inviting something i just
            B
can't do now i've been around
           C#m  G#m
about your hood i'm looking
        E
for you just to shine some light
      G#m            E
on my day feels like ages
                         G#m
since i've been out your way
     E
i've been caught up with
           F#
handful of new sensation


Chorus 1:
E          F#      C#m
i hear you calling calling for
              G#m
me out in the night but it's
E      F#      C#m      G#m--
all bad  and i know that


Verse 2:
B
  I've seen you now
          C#m   G#m
about the Fifth time baby
        E
But you know that
                    G#m
I've got nothing to say
       E
Its so charming to
             G#m
look on your face
         E
But your eyes inviting
            F#
something i just can't do now
B
  i've been around
           C#m  G#m
about your hood i'm looking
        E
for you just to shine some light
      G#m            E
on my day feels like ages
                         G#m
since i've been out your way
     E
i've been caught up with
           F#
handful of new sensation


Chorus 2:
E          F#      C#m
i hear you calling calling for
              G#m
me out in the night but it's
E      F#      C#m      E F#
all bad  and i know that


Guitar Solo:
B--C#m-G#m--E--G#m--E--G#m--E--F#- x2

Guitar 2: Solo
          B        C#m     G#m             E
E|----------------|---|------------|---------------|
B|----------------|---|------------|---------------|
G|----------------|-1-|------------|---------------|
D|---1-4-1-4--4-1-|---|-4--1-1---1-|---------------|
A|-2--------------|---|--------4---|-4-2-2---2-2---|
E|----------------|---|------------|-------4-----4-|

    G#m            E            G#m          E              F#
e|--------|-----------------|--------|----------------|------------|
B|--------|-----------------|--------|----------------|------------|
G|--------|-----------------|--------|----------------|------------|
D|-1----1-|-----------------|-1----1-|----------------|-1----------|
A|----4---|-4--2-2----2-2---|----4---|-4--2-2---2-2---|----4--4--2-|
E|--------|---------4-----4-|--------|--------4-----4-|------------|

          B          C#m        G#m            E
E|----------------|-------|------------|---------------|
B|----------------|-------|------------|---------------|
G|----------------|-1bend-|------------|---------------|
D|---1-4-1-4--4-1-|-------|-4--1-1---1-|---------------|
A|-2--------------|-------|--------4---|-4-2-2---2-2---|
E|----------------|-------|------------|-------4-----4-|

    G#m            E            G#m          E              F#
e|--------|-----------------|--------|----------------|------------|
B|--------|-----------------|--------|----------------|------------|
G|--------|-----------------|--------|----------------|------------|
D|-1----1-|-----------------|-1----1-|----------------|-1----------|
A|----4---|-4--2-2----2-2---|----4---|-4--2-2---2-2---|----4--4--2-|
E|--------|---------4-----4-|--------|--------4-----4-|------------|


Chorus 3:
E          F#      C#m
i hear you calling calling for
              G#m
me out in the night but it's
E      F#      C#m      G#m-F#-
all bad  and i know that
(Repeat x5)

____________________________________________________________

12.) Bully

Key: B

Tuning: Standard EADGBe

Chords used:
G#m - 466444
E -   022100
B -   x24442
F# -  244322
C#m - x46654
D -   xx0232


Verse 1:
G#m
  Find yourself down
             E B
on your knees again
G#m
   The question is when's
             E B   F# E G#m
it gonna end?  Whoa    whoa
G#m
   It just seems this
                 E
will never change
B   G#m
It's   the same shit
            E B F# E  G#m
as yesterday  whoa  whoa


Interlude: G#m-E-B- x4,


Verse 2:
G#m
   Taking shots all that
            E    B
you can take And now
G#m
   You hate yourself more
             E
than you can hate
B F# E  G#m G#m
Whoa  whoa     There's gonna
               E  B
be an emergency I swear
G#m
   It's at the stage where
something's gonna
E     B  F# E  G#m
break Whoa   whoa


Breakdown: C#m-D
e|-----------------------------------------|
B|-2-2-2-2-2-2-2-2-3-3-3-3-3-3-3--|
G|-----------------------------------------|
D|-----------------------------------------|
A|-----------------------------------------|
E|-----------------------------------------|


Chorus: Tom Thacker's Screamo singing style here!!!
G#m
Running like a freight train
F#
  You're going insane
E
  It's just another day
B               F#
  For all these bloody veins
G#m
   It's like a whirlwind
F#
pushing in the deep end
E
  You're screaming to a friend
B           C#m
Get out get out get out!


Interlude: G#m-E-B- x2


Verse 3:
G#m
   Soon the shit's gonna
           E    B
hit the fan You see
G#m
   It's coming on like
           E B F# E   G#m
a hurricane  Whoa   whoa
G#m
   Tired of being
             E B
pushed around  Now
G#m
   Getting close
you're at the edge
E B F# E   G#(hold)
 (Whoa   whoa)

Tom Screams:
If you're going down
Then everybody's going down


(Repeat Chorus twice)


Guitar Solo: G#m--F#--E--B-F#- x4, G#m(hold)--

Guitar 2: Solo
         G#m                F#                E                 B
e|-4-4-4-4-4-7-4-4-|-4-4-4-4-4-7-4-4-|-4-4-4-4-4-7-4-4-|-4-4-4-6-7-6-4---|
B|-----------------|-----------------|-----------------|---------------7-|
G|-----------------|-----------------|-----------------|-----------------|
D|-----------------|-----------------|-----------------|-----------------|
A|-----------------|-----------------|-----------------|-----------------|
E|-----------------|-----------------|-----------------|-----------------|

         G#m                F#                E                  B
e|-4-4-4-6-7-6-4---|-4-6-7-6-7-6-4---|-4-4-4-4-4-4-4-4-|-7-7-7-9-11-9-11-11-|
B|---------------7-|---------------7-|-----------------|--------------------|
G|-----------------|-----------------|-----------------|--------------------|
D|-----------------|-----------------|-----------------|--------------------|
A|-----------------|-----------------|-----------------|--------------------|
E|-----------------|-----------------|-----------------|--------------------|

          G#m
e|-4---guitar-effects-|
B|--------------------|
G|--------------------|
D|--------------------|
A|--------------------|
E|--------------------|


Bridge: Bass Solo
G#m                            E B
   Tired of being pushed around
G#m                            E B
   Tired of being pushed around
G#m                            E B
   Tired of being pushed around
G#m                             E B
   There's gonna be an emergency
G#m                            E B
   Tired of being pushed around
G#m                             E B
   There's gonna be an emergency
G#m                            E B
   Tired of being pushed around
G#m(hold)
   There's gonna be an emergency, look out!!!


Interlude: G#m-E-B- x8


(Repeat Chorus twice)


Outro:
G#m F# E B            C#m
         Get out, get out, get out!
G#m F# E B            C#m      (hold)
         Get out, get out, get out!

___________________________________________________

13.) Cold Feet

Key: C# then Eb

Tuning: Standard EADGBe

Chords used:
Bbm - x13321
F# -  244322
C# -  x46664
G# -  466544
Fm -  133111
Ebm - x68876
Cm -  x35543
Gm -  355333
Bb -  x13331


Intro: C#-- x4


Verse 1:
C#
  I follow your friends around
F#
  I'm searching from town to town
G#
  I never knew what you meant to me
Bbm Fm           F#       G#
  Until you were lost and found
C#
  I never get up for daytime
F#
  And only go out at night
G#
  There's so much i have to say to you
Bbm   Fm           F#         G#
  I'm gonna get it right this time


Chorus 1:
   F#  C#
My love
     G#   Bbm
Come to me
G#    F#   C#
Come around
    G#    Bbm G#
I'm lonely


Verse 2:
C#
  Have socks i can smell you on them
F#
  I guess you must have forgot them
G#
  I wear them when i'm cold sometimes
Bbm   Fm           F#      G#
  I'm wearing them all the time
C#
  I'm thinking of heading south
F#
Bittersweet memories of your mouth
G#
  Remembering what you said to me
Bbm      Fm        F#        G#
  You'll never get cold feet now


(Repeat Chorus 1)


Chorus 2:
   F#  C#
My love
     G#   Bbm
Come to me
G#    F#   C#
Come around
    G#    Ebm
I'm lonely


Interlude: Bbm-Fm-F#-G#- x2

Modulate from C# to Eb
Cm-Gm-G#-Bb- x2


Verse 3: Modulate back to C#
C#
  I follow your friends around
F#
  I'm searching from town to town
G#
  I never knew what you meant to me
Bbm Fm           F#       G#
  Until you were lost and found


Chorus 3: Modulate from C# to Eb
   G#  Eb
My love
     Bb   Cm
Come to me
Bb    G#   Eb
Come around
    Bb    Cm Bb
I'm lonely
(Repeat x4)


Outro: Cm(hold)

_______________________________________________

14.) Everybody's Getting Hooked Up

Key: Bb

Tuning: Standard EADGBe

Chords used:
Gm -   355333
F -    133211
Eb -   x68886
Bb -   x13331
Cm -   x35543
C# -   x46664


Intro: Gm----Eb-- x2
Cm--Gm-Eb- x2

Guitar 2:
        Gm                Eb                 Gm
e|--------------|---------------------|--------------|
B|--------------|---------------------|--------------|
G|--------------|---------------------|--------------|
D|-5-5-5--------|---------------------|-5-5-5--------|
A|-5-5-5--5p3h5-|-6--------6--5h6p5---|-5-5-5--5p3h5-|
E|-3-3-3--------|----6--3-----------6-|-3-3-3--------|
        x2

           Cm            Gm         Eb
e|---------------------|----|---------------------|
B|---------------------|----|---------------------|
G|-5-5-5-5--5-5-5-5--5-|----|-8-8-8--8-8-8--8-8-8-|
D|-5-5-5-5--5-5-5-5--5-|-5--|-8-8-8--8-8-8--8-8-8-|
A|-3-3-3-3--3-3-3-3--3-|-5--|-6-6-6--6-6-6--6-6-6-|
E|---------------------|-3--|---------------------|


Verse 1:
Cm
  Lately i've had a
               Gm Eb
heavy thing on my mind
I don't think that
i can carry it
Cm
  Around for very long
          Gm    Eb
I guess i could try
And treat it like a test well
Bb
  I met her on a saturday night
        Eb
She said  you wanna fuck
                     F
You know it's alright
Bb
  I give it up until i get down
    Eb
The sun takes up and
it's raining down


Refrain 1:
Gm        F
Four leaf clover is
  Eb
nowhere to be found
Gm     F
Fall until you've
        Eb
hit the ground


Verse 2:
Cm
  Lately i've had a
               Gm Eb
heavy thing on my mind
I don't think that
i can carry it
Cm
  Around for very long
          Gm    Eb
I guess i could try
And treat it like a lesson
Bb
  I met her on a saturday night
        Eb
She said  you wanna fuck
                     F
You know it's alright
Bb
  I give it up until i get down
    Eb
The sun takes up and
it's raining down


Refrain 2:
Gm        F
Four leaf clover is
  Eb
nowhere to be found
Gm     F
Fall until you've
        Eb
hit the ground
Yeah, yeah, yeah


Chorus 1:
Bb       F
  Made a mess of me
Gm
  Tonight
Eb
Yeah yeah yeah
Bb       F
  Made a mess of me
Gm
  Tonight
Eb
Yeah, yeah yeah
Bb     F      Gm       Eb
  Every-body's  getting  hooked up
Bb       F          Eb Gm-F-
  Made a mess of me now


Interlude: Eb--

Guitar 2:
e|-------6--------6--------6-|
B|-3-4-3----3-4-3----3-4-3---|
G|---------------------------|
D|---------------------------| x16
A|---------------------------|
E|---------------------------|


Bass: Cm--Gm-Eb- x2

Distortion: Cm--Gm-Eb- x2, Cm--Gm-- x4, Eb--


Chorus 2:
Bb       F
  Made a mess of me
Gm
  Tonight
Eb
Yeah yeah yeah
Bb       F
  Made a mess of me
Gm
  Tonight
Eb
Yeah, yeah yeah
Bb     F      Gm       Eb
  Every-body's  getting  hooked up
Bb     F      Gm       Eb
  Every-body's  getting  hooked up
Bb       F          C#      Eb
  Made a mess of me now and how
Bb       F          C#      Eb(hold)
  Made a mess of me now and how

_______________________________________________

15.) Break

Key: F#

Tuning: Standard EADGBe

Chords used:
F# -  244322
C# -  x46664
Ebm - x68876
E -   022100
B -   x24442
G#m - 466444


Intro: F#--, F#--G#m-Ebm-B- x2, F#--G#m-Ebm-B-C#

Guitar 2:
e|-2-2-2-------------------------|
B|-------2-----------2-------2---|
G|---------3-3-4-4-4---3-3-4---3-|
D|-------------------------------| x12
A|-------------------------------|
E|-------------------------------|


Verse 1:
F#                      Ebm B
  I'm playing cool and swell
F#                          Ebm B
  But I've been through all hell
F#
Trying to make a break think
And then forget about it
Ebm                   B
Better if it rings out
F#                      Ebm B
  I'm acting through it all


Breakdown: F#
e|-----------|
B|-----------|
G|-----------|
D|-----------|
A|-----1-----|
E|-2-4---4-2-|


Chorus 1:
F#            C#
  Making up excuses
                  Ebm
Running from your eyes
                 B
Drowning in your side
               F#
Flooded in our blood
                C#
Underneath your water
                   Ebm
Bound and gagged I fight
            B
Gotta get undone
Cause I don't want to break


Post chorus 1:
F#              E
I don't want to fake
Ebm             B
I don't want to break
F#              E
I don't want to fake
Ebm            B
I just want to get out


Interlude: Ebm--B--

Guitar 2:
        Ebm             B
e|---------------|-------------|
B|---------------|-------------|
G|-4-3-1---1---1-|---1---1-3-1-|
D|-------4---4---|-4---4-----4-|
A|---------------|-------------|
E|---------------|-------------|


Verse 2:
F#                    Ebm B
  It's closing in somehow
F#                      Ebm B
  Pressed up against me now
F#
  Get under my skin take
A knife and cut it out
Ebm                      B
I just want to get it out
F#                          Ebm B
  The walls have closed somehow


(Repeat Breakdown)


Chorus 2:
F#            C#
  Making up excuses
                  Ebm
Running from your eyes
                 B
Drowning in your side
               F#
Flooded in our blood
                C#
Underneath your water
                   Ebm
Bound and gagged I fight
            (hold)
Gotta get undone
Cause I don't want to break


Post chorus 2:
F#              E
I don't want to fake
Ebm             B
I don't want to break
F#              E
I don't want to fake
Ebm            B
I just want to get out
F#              E
I don't want to fake
Ebm             B
I don't want to break
F#              E
I don't want to fake
Ebm            B      B(hold)
I just want to get out


Interlude: C#-G#m-E-B- x2


Bridge:
C#        G#m
  Turning blue and
      E    B
no surprise
C#        G#m
  I'm not breathing when
    E
I'm not inspired


Interlude: Ebm-B-F#-C# x2, Ebm-B-C#--

Guitar 2:
e|-7-6-4---4---4----4---4-6---|
B|-------7---7----7---7-----7-|
G|----------------------------|
D|----------------------------| x3
A|----------------------------|
E|----------------------------|


(Repeat Breakdown)
(Repeat Chorus 1)


Post Chorus 3:
F#              E
I don't want to fake
Ebm          B   F# C#
I just wanna get out
Ebm             B
I don't want to fake
F#              E
I don't want to fake
Ebm          B   C#--
I just wanna get out
F#              E
I don't want to fake
Ebm             B
I don't want to break
F#              E
I don't want to fake
Ebm            B   F# E Ebm B F#(hold)
I just want to get out


Guitar 2: Post Chorus 3
e|-18----18----18----18----|
B|----19----19----19----19-|
G|-------------------------|
D|-------------------------|
A|-------------------------|
E|-------------------------|

_________________________________________

16.) My Favourite Shoplifter

Key: F#, C#, Bb

Tuning: Standard EADGBe

Chords used:
Ebm - x68876
Bbm - x13321
F# -  244322
C# -  x46664
G# -  466544
B -   x24442
Gm -  355533
Eb -  x68886
F -   133211


Intro: Ebm-Bbm-F#-- x2

Guitar 2: F#
e|---------------------------------|
B|---------------------------------|
G|-----6-----6-----6-----6-----6---|
D|-3-4---3-4---3-4---3-4---3-4---4-|
A|---------------------------------|
E|---------------------------------|

e|---------------------------------|
B|---------------------------------|
G|---------------------------------|
D|---------------------------------|
A|-----4-----4-----4-----4-----4---|
E|-1-2---1-2---1-2---1-2---1-2---2-|

Verse 1:
Ebm     Bbm        F#
   This might seem mean but I mean it
Ebm     Bbm       F#
   I'll back this up and won't back down
Ebm   Bbm     F#
   So what if I hurt your feelings
Ebm           Bbm
   Why should I care?
F#
  You're all wrapped up in yourself


Interlude: Ebm-Bbm-F#--

Guitar 2:
e|---------------------------------|
B|---------------------------------|
G|-----6-----6-----6-----6-----6---|
D|-3-4---3-4---3-4---3-4---3-4---4-|
A|---------------------------------|
E|---------------------------------|


Verse 2:
Ebm     Bbm          F#
   Your friends they don't want to see you
Ebm     Bbm  F#
   Everybody knows that you're fucked up
Ebm    Bbm     F#
   You left me here with your loose ends
Ebm      Bbm       F#
   Maybe you'll get  tangled

up in them and fall down


Breakdown:
e|---------------------------------|
B|---------------------------------|
G|-----6-----6-----6-----6-----6---|
D|-3-4---3-4---3-4---3-4---3-4---4-|
A|---------------------------------|
E|---------------------------------|


Chorus 1:
C#           G#
I wrote this song
            B
to make you cry
           F# Ebm B
So say goodbye
C#           G#
I wrote this song
            B
to make you cry
           F# Ebm B
So say goodbye


Verse 3:
Ebm  Bbm      F#
   I just met Winona Ryder
Ebm  Bbm       F#
   I know that she
is your idol
Ebm     Bbm    F#
   Just so you know
she can't stand you
Ebm        Bbm
   But she digs me
F#
   And she gave me
her home number


(Repeat Breakdown)
(Repeat Chorus)


Interlude: Gm--Eb-- x2


Bridge:
Gm         Eb
  Now I've burned up all
Gm        Eb
  Of your pictures and
F     Eb
  Any evidence
F      Eb
  To remind me of
Gm   Eb
  Anything we said
Gm   Eb
  Anyway i can
F            Eb
  I won't be left alone with
F               Eb
  your presence haunting me


Interlude: Ebm-Bbm-F#-- x2

Guitar 2:
e|---------------------------------|
B|---------------------------------|
G|-----6-----6-----6-----6-----6---|
D|-3-4---3-4---3-4---3-4---3-4---4-|
A|---------------------------------|
E|---------------------------------|

e|---------------------------------|
B|---------------------------------|
G|---------------------------------|
D|---------------------------------|
A|-----4-----4-----4-----4-----4---|
E|-1-2---1-2---1-2---1-2---1-2---2-|

(Repeat Chorus 1)


Chorus 2:
C#          G#
I hope this song
              B
will make you cry
          F#   Ebm B
A million times
C#          G#
I hope this song
              B
will make you cry
          F#   Ebm B-F#(hold)
A billion times

_________________________________________

17.) L.A. Song

Key: G#, B

Tuning: Standard EADGBe

Chords used:
G# -   466544
C# -   x46664
G#m -  466444
E -    022100
B -    x24442
C#m -  x46654
A -    x02220
F# -   244322
B/Eb - x698xx


Intro: G#--C#-- x4


Verse 1:
B                    F#
Maybe I could find a way
     G#m               E
I've gotta make it to LA
     B
I'm slipping in and
            F#
out of your mind now
G#m                      E
I don't wanna do it that way


Chorus 1:
           B/Eb
I'm always pushing you
         E
down and drag you around
  B           C#m     A
I turn into a jackass when
you're not around
    B/Eb
I'm feeling you out
E
nailing you down
    B              C#m
You always give me something
   A       E          A E
to wrap my hand around


Verse 2:
  B                      F#
I made a list of rules today
    G#m                E
I'm never gonna be the same
  B                         F#
I put you in the back of my mind
         G#m
When you keep me
               E
outta trouble ahead


Chorus 2:
             B/Eb
I'm tired of pushing you
       E
down I drag you around
  B              C#m
I fall into this trap I
      A      E
could easily get around
    B/Eb
I'm breaking it down
    E
but where are you now?
  B
I finally learned my
C#m       A          E
lesson to change my style


Bridge:
F#     G#m      E
Needed piece of mind
  F#      G#m      E
I think I see this time
  F#      G#m     E
I break into your life
  F#      G#m     E
I break into your life
I break into your life
                  B/Eb E
I break into your life


Guitar Solo:
    B/Eb         E           B      C#m    A      E
e|---------|------------|---------|-----|------|------|
B|-4-4-----|-5-4--------|-4-----4-|-----|------|------|
G|-----6-4-|-----6-4--6-|----6----|-6-4-|-6--4-|----4-|
D|---------|------------|---------|-----|------|-6----|
A|---------|------------|---------|-----|------|------|
E|---------|------------|---------|-----|------|------|

    B/Eb            E            B      C#m    A     E
e|---------|----------------|---------|-----|------|---|
B|-4-4-----|-5-4------------|-4-----4-|-----|------|---|
G|-----6-4-|-----6-4--6-4-6-|----6----|-6-4-|-6--4-|---|
D|---------|----------------|---------|-----|------|-6-|
A|---------|----------------|---------|-----|------|---|
E|---------|----------------|---------|-----|------|---|


Bass Solo: G#--C#-- x8


Outro:
B                    F#
Maybe I could find a way
     G#m               E
I've gotta make it to LA
B                    F#
Maybe I could find a way
     G#m               E A
I've gotta make it to LA
B                    F#
Maybe I could find a way
     G#m               E
I've gotta make it to LA
B                    F#
Maybe I could find a way
     G#m               E
I've gotta make it to LA


Guitar Solo:
    B/Eb            E            B      C#m    A     E(hold)
e|---------|----------------|---------|-----|------|---|
B|-4-4-----|-5-4------------|-4-----4-|-----|------|---|
G|-----6-4-|-----6-4--6-4-6-|----6----|-6-4-|-6--4-|---|
D|---------|----------------|---------|-----|------|-6-|
A|---------|----------------|---------|-----|------|---|
E|---------|----------------|---------|-----|------|---|

___________________________________

18.) Sick With You

Key: G#, B

Tuning: Standard EADGBe

Chords used:
G# -   466544
C# -   x46664
G#m -  466444
E -    022100
B -    x24442
C#m -  x46654
A -    x02220
F# -   244322
B/Eb - x698xx


Intro: G#--C#-- x4


Verse 1:
B                    F#
Maybe I could find a way
     G#m               E
I've gotta make it to LA
     B
I'm slipping in and
            F#
out of your mind now
G#m                      E
I don't wanna do it that way


Chorus 1:
           B/Eb
I'm always pushing you
         E
down and drag you around
  B           C#m     A
I turn into a jackass when
you're not around
    B/Eb
I'm feeling you out
E
nailing you down
    B              C#m
You always give me something
   A       E          A E
to wrap my hand around


Verse 2:
  B                      F#
I made a list of rules today
    G#m                E
I'm never gonna be the same
  B                         F#
I put you in the back of my mind
         G#m
When you keep me
               E
outta trouble ahead


Chorus 2:
             B/Eb
I'm tired of pushing you
       E
down I drag you around
  B              C#m
I fall into this trap I
      A      E
could easily get around
    B/Eb
I'm breaking it down
    E
but where are you now?
  B
I finally learned my
C#m       A          E
lesson to change my style


Bridge:
F#     G#m      E
Needed piece of mind
  F#      G#m      E
I think I see this time
  F#      G#m     E
I break into your life
  F#      G#m     E
I break into your life
I break into your life
                  B/Eb E
I break into your life


Guitar Solo:
    B/Eb         E           B      C#m    A      E
e|---------|------------|---------|-----|------|------|
B|-4-4-----|-5-4--------|-4-----4-|-----|------|------|
G|-----6-4-|-----6-4--6-|----6----|-6-4-|-6--4-|----4-|
D|---------|------------|---------|-----|------|-6----|
A|---------|------------|---------|-----|------|------|
E|---------|------------|---------|-----|------|------|

    B/Eb            E            B      C#m    A     E
e|---------|----------------|---------|-----|------|---|
B|-4-4-----|-5-4------------|-4-----4-|-----|------|---|
G|-----6-4-|-----6-4--6-4-6-|----6----|-6-4-|-6--4-|---|
D|---------|----------------|---------|-----|------|-6-|
A|---------|----------------|---------|-----|------|---|
E|---------|----------------|---------|-----|------|---|


Bass Solo: G#--C#-- x8


Outro:
B                    F#
Maybe I could find a way
     G#m               E
I've gotta make it to LA
B                    F#
Maybe I could find a way
     G#m               E A
I've gotta make it to LA
B                    F#
Maybe I could find a way
     G#m               E
I've gotta make it to LA
B                    F#
Maybe I could find a way
     G#m               E
I've gotta make it to LA


Guitar Solo:
    B/Eb            E            B      C#m    A     E(hold)
e|---------|----------------|---------|-----|------|---|
B|-4-4-----|-5-4------------|-4-----4-|-----|------|---|
G|-----6-4-|-----6-4--6-4-6-|----6----|-6-4-|-6--4-|---|
D|---------|----------------|---------|-----|------|-6-|
A|---------|----------------|---------|-----|------|---|
E|---------|----------------|---------|-----|------|---|

_________________________________________

19.) Mr. Sandman

Mr. Sandman, bring me a dream
Make him the cutest that I've ever seen
Give him two lips like roses and clover
Then tell him that his lonesome nights are over

Sandman, I'm so alone
Don't have nobody to call my own
Please turn on your magic beams
Mr. Sandman, bring me a dream

Mr. Sandman, bring me a dream
Make him the cutest that I've ever seen
Give him the word that I'm not a rover
Then tell him that his lonesome nights are over

Sandman, I'm so alone
Don't have nobody to call my own
Please turn on your magic beams
Mr. Sandman, bring me a dream

Enter Sandman
Uh, yeah
Bring me a nightmare
Give him a pair of eyes with a frightening gleam
Give him a beer ad empty beer cans
And long wavy hair like Pat the Wolfman

Mr. Sandman, someone to dread
Someone who's creepy and after my head
So please turn on your magic beams
Mr. Sandman bring us
Please, please, please Mr. Sandman
Bring us a dream

_______________________________________________

20.) Heavy Metal shuffle

Home boy hustlin', shufflin' to the beat
Got a heavy metal dub from Jamaica, Queens
Homeboy rockin', hustlin' to the beat
Got a heavy metal dub and a boom box beat

Punk rock hustlin', shufflin' to the beat
Got a heavy metal dub on his walk the street
Home boy rockin', shufflin' to the beat
Got a heavy metal dub from Astoria, Queens

Skin head rockin', hustlin' to the beat
Got a heavy metal dub on his walk the street
Home boy rockin', shufflin' to the beat
Got a heavy metal dub and a boom box beat

Heavy metal shuffle bustin' out a beat
Got a heavy metal dub on his walk the street
Home boy rockin', hustlin' to the beat
Got a heavy metal dub from Jamaica, Queens
Добавлено: 06.06.2013
Другие материалы по этой песне:
  • Аккорды и текст

Страница создана 06.06.2013
http://primanota.ru/gob/foot-in-mouth-disease-chords.htm
Привет, Гость.
Предлагаем пройти революционный курс по гитаре.
Подарок от PrimaNota.Ru, забирай!