PrimaNota.ru - самый крупный в мире бесплатный архив песенных текстов, аккордов, табулатур и нот


Gob - Beauville - аккорды и текст, таба, видео

Регистрация Запомнить меня
Войти через:  Facebook Google Twitter Vk Yandex Mail.ru

Gob - Beauville - аккорды и текст, таба, видео

Печатать
Просмотров: 164
Beauville
Gob
**drop-d**

e|--------------------------------------------------------------|
b|--------------------------------------------------------------|
g|--------------------------------------------------------------|
d|--3-5-1-8-5-1-3-5-x-------------------------------------------|
a|--3-5-1-8-5-1-3-5-x-------------------------------------------|
d|--3-5-1-8-5-1-3-5-x-------------------------------------------|

   this is the riff played in the verse
e|--------------------------------------------------------------|
b|--------------------------------------------------------------|
g|-3-5-5-3-5-3-7-7-3-5-3-5-5-3-5-3-7-7-7-7-5-3------------------|
d|--------------------------------------------------------------|
a|--------------------------------------------------------------|
d|--------------------------------------------------------------|

   this is the "and i can feel your pain im bleeding..." part
   this is same as intro/verse but palm muted
e|--------------------------------------------------------------|
b|--------------------------------------------------------------|
g|--------------------------------------------------------------|
d|--3-5-1-8-5-1-3-5---------------------------------------------|
a|--3-5-1-8-5-1-3-5---------------------------------------------|
d|--3-5-1-8-5-1-3-5---------------------------------------------|
    p.m............

   this is the "here you go this is yours a..." part
e|--------------------------------------------------------------|
b|--------------------------------------------------------------|
g|-----7---7-8--------------------------------------------------|
d|-8-3-7-3-7-8--------------------------------------------------|
a|-8-3-5-3-5-6--------------------------------------------------|
d|-8-3---3------------------------------------------------------|

   End off on

e|--------------------------------------------------------------|
b|--------------------------------------------------------------|
g|--------------------------------------------------------------|
d|--1~----------------------------------------------------------|
a|--1~----------------------------------------------------------|
d|--1~----------------------------------------------------------|
     
Добавлено: 03.10.2013
Другие материалы по этой песне:
  • Аккорды и текст

Страница создана 06.06.2012
http://primanota.ru/gob/beauville-chords.htm
Привет, Гость.
Предлагаем пройти революционный курс по гитаре.
Подарок от PrimaNota.Ru, забирай!