PrimaNota.ru - самый крупный в мире бесплатный архив песенных текстов, аккордов, табулатур и нот


Gob - 236 e. Broadway - аккорды и текст, видео

Регистрация Запомнить меня
Войти через:  Facebook Google Twitter Vk Yandex Mail.ru

Gob - 236 e. Broadway - аккорды и текст, видео

Печатать
Просмотров: 113
Авторы музыки: Tom Thacker
Авторы текста: Tom Thacker
236 e. Broadway
Gob
Gob
236 E Broadway
How Far Shallow Takes You
1998
Submitted by: paramore_fans@yahoo.com

key: G#

Tuning: Standard EADGBe

Chords used:
G# - 466544
F# - 244322
Fm - 133111
C# - x46664
Eb - x68886


Intro:

Silence

Tom: Fm-- x2

Theo:
e|---------------------|
B|---------------------|
G|---------------------|
D|-1-1-1-1-3-----------|
A|---------------------|
E|---------------------|

Craig: Bass Solo
G|-------------------------------------------------------1-1-1-3-5-|
D|-3-3-3-1-3-3-3-1-3-3-3-1-3-3-3-----------------------3-----------|
A|-------------------------------3-3-3-4-4-4---------3-------------| x4
E|-------------------------------------------4-4-4-1---------------|


Distortion:

Tom: G#-F#-Fm--G#-F#-Fm-C#- x2

Theo:
e|-----------------------------4-|
B|---------------1-1-1-1-1-2-1-4-|
G|-1-1-1-1-3-1-3-----------------|
D|-------------------------------|
A|-------------------------------|
E|-------------------------------|


Verse 1:
G#   F#       Fm
  It seems so tough
sometimes when you
G#     F#       Fm
face a day with back
        C#
to back conflict
G# F#           Fm
   When you get pushed around
    G#               F#
you might stand your ground
          Fm         C#
Might end up on your back but


Chorus 1:
Eb         C#          Fm
  When you fall do you benefit
    C#    G#
and talk about it
Eb         C#          Fm
  When you fall do you get back
             C#    G#
up with your head above you
Eb         C#
  When you fall


Verse 2:
G#  F#
  I choked back
Fm
tears last night
G#         F#
  sitting alone in a
Fm         C#
restaurant thinking
G# F#        Fm
   How did I get so
    G#
low how did
  F#        Fm
I manage to sink
       C#
to the bottom


Chorus 2:
Eb         C#          Fm
  When you fall do you benefit
    C#    G#
and talk about it
Eb         C#          Fm
  When you fall do you get back
             C#    G#
up with your head above you
Eb         C#
  When you fall
Eb         C#
  When you fall
Eb         C#  G#--F#-Fm---Fm(hold)
  When you fall
Добавлено: 28.07.2013
Другие материалы по этой песне:
  • Аккорды и текст

Страница создана 21.03.2012
http://primanota.ru/gob/236-e-broadway-chords.htm
Привет, Гость.
Предлагаем пройти революционный курс по гитаре.
Подарок от PrimaNota.Ru, забирай!