PrimaNota.ru - самый крупный в мире бесплатный архив песенных текстов, аккордов, табулатур и нот


Goatwhore - Perversions Of The Ancient Goat - текст песни, таба, видео

Регистрация Запомнить меня
Войти через:  Facebook Google Twitter Vk Yandex Mail.ru

Goatwhore - Perversions Of The Ancient Goat - текст песни, таба, видео

Печатать
Просмотров: 104
GOATWHORE - Perversions of the Ancient Goat tabbed by grungeparty123

Standard Tuning EADGBe believe it or not.

BPM 85

* Palm Mute
/ Slide down
t Tap


Riff 1
e|-4-4-4-4-4-4-------------------------|
B|-6-6-6-6-6-6-------------------------|
G|-6-6-6-6-6-6/5-5-5-5-5-5-5-5---------|
D|-6-6-6-6-6-6/5-5-5-5-5-5-5-5-3t-3t-3t|   Repeat x8
A|-4-4-4-4-4-4/3-3-3-3-3-3-3-3-3t-3t-3t|
E|-----------------------------1t-1t-1t|
   * * * * * * * * * * * * * *

Riff 2
e|-----3-3-3---4-3-3-4-3|
B|-----x-x-x-1-6-x-4-6-x|
G|-5-5-x-x-x-x-6-x-5-6-x|
D|-5-5-x-x-x-2-6-x-5-6-x|  Repeat x4
A|-3-3-2-2-2-3-4-2-x-4-2|
E|-----3-3-3-----3-----3|
   * * * * * * * * * * *

Riff 3
e|-3-3---------1-1-----------------1-1---------|
B|-4-4---------1-1-----------------1-1---------|
G|-5-5---------2-2-1-1-1-1---------2-2-1-1-1-1-|
D|-5-5-3-3-4-4-3-3-2-2-2-2-3-3-4-4-3-3-2-2-2-2-|
A|-x-x-3-3-4-4-----2-2-2-2-3-3-4-4-----2-2-2-2-|
E|-----1-1-2-2-------------1-1-2-2-------------|
   * * * * * * * * * * * * * * * * * * * * *
Riff 1
e|-4-4-4-4-4-4-------------------------|
B|-6-6-6-6-6-6-------------------------|
G|-6-6-6-6-6-6/5-5-5-5-5-5-5-5---------|
D|-6-6-6-6-6-6/5-5-5-5-5-5-5-5-3t-3t-3t|
A|-4-4-4-4-4-4/3-3-3-3-3-3-3-3-3t-3t-3t|
E|-----------------------------1t-1t-1t|
   * * * * * * * * * * * * * *
End On
e|--|
B|--|
G|-1|
D|-2|
A|-2|
E|--|
Добавлено: 27.02.2012
Другие материалы по этой песне:
  • Аккорды и текст

Страница создана 27.02.2012
http://primanota.ru/goatwhore/perversions-of-the-ancient-goat-chords.htm
Привет, Гость.
Предлагаем пройти революционный курс по гитаре.
Подарок от PrimaNota.Ru, забирай!