PrimaNota.ru - самый крупный в мире бесплатный архив песенных текстов, аккордов, табулатур и нот


Goat - Talk To God - таба, видео

Регистрация Запомнить меня
Войти через:  Facebook Google Twitter Vk Yandex Mail.ru

Goat - Talk To God - таба, видео

Печатать
Просмотров: 80
Band: Goat |
Song: Talk To God 
Album: Commune (2014)

  Gt 1.                             Gt 2. Intro riff
e|----(1)----------------------| e|---------sl------||----------------||--------------------|
b|-----3----------3---------3--| b|-----8--8\-------||----------------||-----6--6--6h9p6----|
g|----(2)---0h2p0--------------| g|-7---0--0--5-(7)-||-7---7----5-(7)-||-7---------------7--|
d|-0-0----0---------0h3p0------| d|-0-----------(0)-||-0---0--5---(0)-||-0---3--3--3h6p3----|
a|------------------------3----| a|-----------3-----||----------3-----||-----------------5--|
E|-----------------------------| E|-----------------||--------3-------||--------------------|

  Gt 2. Main Riff                             
e|---------------------------------------| 
b|----8h10--8h10p8h10p8------------------| 
g|-----------------------9---7h9p7h9p7\5-| 
d|-(0)-----------------------------------| 
a|---------------------------------------|
E|---------------------------------------| 

  Gt 2. Fill in bits
e|---------------------------------------| e|----------------------------------|
b|----8h10--8h10p8h10p8-------------8----| b|----8h10--8h10p8h10p8----------3--|
g|-----------------------9---7-h-9-----9-| g|-----------------------0(3)h5-----|
d|-(0)-----------------------------------| d|-(0)------------------------------| 
a|---------------------------------------| a|----------------------------------|
E|---------------------------------------| E|----------------------------------|

e|---------------7-p-0-3-p-0-3-p-0--| e|-----------------------------------------|
b|----8h10--8-10--------------------| b|----8h10--3-p-0-3-p-0-1-p-0-3-p-0-3-p-x--|
g|----------------------------------| g|-----------------------------------------|
d|-(0)------------------------------| d|-(0)-------------------------------------| 
a|----------------------------------| a|-----------------------------------------|
E|----------------------------------| E|-----------------------------------------|

e|---------------------------------------| e|------------------------------------|
b|----8h10--8h10p8h10p8------------------| b|----8h10--8h10p8h10p8---------------|
g|-----------------------9---7-h-9-9-p-7-| g|-----------------------0------------|
d|-(0)-----------------------------------| d|-(0)----------------------7-p-0-----| 
a|---------------------------------------| a|---------------------------------5--|
E|---------------------------------------| E|------------------------------------|

  Bass
G|---------------------------------|----------------------------------|
D|---------------------------------|----------------------------------|
A|--3h5--5-5----5---5-5---3h5-3p0--|--3h5--5-5----5---5-5---3p0-3p0---|
E|---------------------------------|----------------------------------|
Добавлено: 28.05.2016
Другие материалы по этой песне:
  • Аккорды и текст

Страница создана 28.05.2016
http://primanota.ru/goat/talk-to-god-chords.htm
Привет, Гость.
Предлагаем пройти революционный курс по гитаре.
Подарок от PrimaNota.Ru, забирай!