PrimaNota.ru - самый крупный в мире бесплатный архив песенных текстов, аккордов, табулатур и нот


Goat - Run To Your Mama - таба, видео

Регистрация Запомнить меня
Войти через:  Facebook Google Twitter Vk Yandex Mail.ru

Goat - Run To Your Mama - таба, видео

Печатать
Просмотров: 188
-------------------------------------------------------------------------------
                             Goat - Run to your Mama
-------------------------------------------------------------------------------
Tabbed by: Running_Dogg
E-mail: onlycrims@gmail.com

Tuning: Standard


Easy piece by Goat, just few pchords but still fun to play





----------------------------------
Background thingy
----------------------------------

By the whole song theres a simple background thing going on.
I guess they play it with 2nd guitar but you can play it beetwen main chords
and it sounds good to me

clean, up and down picking


e|---------------------------------------------------------------------------|
B|---------------------------------------------------------------------------|
G|-------------------------------OR------------------------------------------|
D|---------------------------------------00-00-00-00-00-00-------------------|
A|--55-55-55-55-55-55--------------------------------------------------------|
E|---------------------------------------------------------------------------|





----------------------------------
Intro and bridge riff
----------------------------------

Distorted


e|---------------------------------------------------------------------------|
B|---------------------------------------------------------------------------|
G|---------------------------------------------------------------------------|
D|---5----8--7---------------------------------------------------------------|
A|---5----8--7---------------------------------------------------------------|
E|---3----6--5---------------------------------------------------------------|




----------------------------------
Verse riff
----------------------------------

Its played four times every verse, at 1st and 3rd time you kill the last power chord
at 2nd and 4th you let it ring

e|---------------------------------------------------------------------------|
B|---------------------------------------------------------------------------|
G|---------------------------------------------------------------------------|
D|----5----7-----10---7-----5---7--------------------------------------------|
A|----3----5-----8----5-----3---5--------------------------------------------|
E|---------------------------------------------------------------------------|



Then you play Intro once and Verse riff 4 times again


Play intro riff one more time and there goes outro

-------------------------------
Outro riff
-------------------------------

Play it 4 times

e|---------------------------------------------------------------------------|
B|---------------------------------------------------------------------------|
G|----------heres some time for you------------------------------------------|
D|---5---7--to put that background thing-------------------------------------|
A|---3---5-------------------------------------------------------------------|
E|---------------------------------------------------------------------------|


And end with this

e|---------------------------------------------------------------------------|
B|----------------7~---------------------------------------------------------|
G|----------------7~---------------------------------------------------------|
D|----------------5~---------------------------------------------------------|
A|---5---8--7----------------------------------------------------------------|
E|---3---6--5----------------------------------------------------------------|




************************************

| /   slide up
| \   slide down
| h   hammer-on
| p   pull-off
| ~   vibrato
| +   harmonic
| x   Mute note
| b   Bend
| pb  Pre-bend
| br  Bend release
| pbr Pre-bend release
| brb Bend release bend
Добавлено: 18.08.2013
Другие материалы по этой песне:
  • Аккорды и текст

Страница создана 18.08.2013
http://primanota.ru/goat/run-to-your-mama-chords.htm
Привет, Гость.
Предлагаем пройти революционный курс по гитаре.
Подарок от PrimaNota.Ru, забирай!