PrimaNota.ru - самый крупный в мире бесплатный архив песенных текстов, аккордов, табулатур и нот


Goat - Let It Bleed - таба, видео

Регистрация Запомнить меня
Войти через:  Facebook Google Twitter Vk Yandex Mail.ru

Goat - Let It Bleed - таба, видео

Печатать
Просмотров: 166
Уроки эстрадного вокала в Санкт-Петербурге
-------------------------------------------------------------------------------
                             Let It Bleed - Goat
-------------------------------------------------------------------------------

Tuning: Standard

Chords:
     C               Am               D                Am
e|---8-----8--8--x---5---5-5--x-x-x---10----10--10-x---5---5-5---x-x-x---------------------------|
B|---8-----8--8--x---5---5-5--x-x-x---10----10--10-x---5---5-5---x-x-x---------------------------|
G|---9-----9--9--x---5---5-5--x-x-x---11----11--11-x---5---5-5---x-x-x---------------------------|
D|---10----10-10-x---7---7-7--x-x-x---12----12--12-x---7---7-7---x-x-x---------------------------|
A|---10----10-10-x---7---7-7--x-x-x---12----12--12-x---7---7-7---x-x-x---------------------------|
E|---8-----8--8--x---5---5-5--x-x-x---10----10--10-x---5---5-5---x-x-x---------------------------|

Riff:

e|-----------------------------------------------------------------------------------------------|
B|-----------------------------------------------------------------------------------------------|
G|---------5--7-7-----5---5-------------------------5--7-7-----5---5-----------------------------|
D|---5--7----------7---------7-7--5-5--7-7--5-5--7----------7---------7-7--5-5-------5-5---------|
A|------------------------------------------------------------------------------7-7--------------|
E|-----------------------------------------------------------------------------------------------|




************************************

| /   slide up
| \   slide down
| h   hammer-on
| p   pull-off
| ~   vibrato
| +   harmonic
| x   Mute note
| b   Bend
| pb  Pre-bend
| br  Bend release
| pbr Pre-bend release
| brb Bend release bend

************************************
Добавлено: 26.07.2015
Другие материалы по этой песне:
  • Аккорды и текст

Страница создана 26.07.2015
http://primanota.ru/goat/let-it-bleed-chords.htm
Привет, Гость.
Предлагаем пройти революционный курс по гитаре.
Подарок от PrimaNota.Ru, забирай!