PrimaNota.ru - самый крупный в мире бесплатный архив песенных текстов, аккордов, табулатур и нот


Goat - Gathering Of Ancient Tribes - таба, видео

Регистрация Запомнить меня
Войти через:  Facebook Google Twitter Vk Yandex Mail.ru

Goat - Gathering Of Ancient Tribes - таба, видео

Печатать
Просмотров: 83
GOAT - Gathering Of Ancient Tribes (2014)

  Intro
e|-------------------------------------------|-
B|-------------------------------------------|-
G|----------------------0-3~~--0-3-5(b2r)-3--|-
D|-----5p3p0-3------3h5----------------------|-
A|-------------------------------------------|-
E|-(3)----------(3)--------------------------|-

  Main Riff
e|-------------------------------------------------------------------------|-
B|-------------------------------------------------------------------------|-
G|---------0-----------0---------0----------0--------------------0---------|-
D|-----5-------3h5(p3)(0)---3h5-------------sl-------------------sl--------|-
A|-----------------------------------3---(3)/5---3h5p3\---1---(1)/3--1h3p1-|-
E|-3-----------------------------------------------------------------------|-
 |                                                                         |
 |Extra bit from "into the fire"                                           |
e|-3--------------------------------(8)------------------(6)---------------|-
B|-------------------------------------------------------------------------|-
G|-0--------------------------------(5)------------------(3)---------------|-
D|-----------------------------------1-----------1-p-0---------------------|-
A|-----------------------------------3----------(3h5p3)---1----------1h3p1-|-
E|-3-----------------------------------------------------------------------|-


                                
e|------------------------------| |-
B|------------------------------| |-
G|------------------------------|X|-
D|-------5p3p0h3~~-3-h-5--------|4|-
A|------------------------3-----| |-
E|-3--(3)--------------------6--| |-


  Lead:
e|-------------------------------------------------------------------------------|-
B|------------------------------------------(3)~---------------------------------|-
G|-5(b2)~--5-(br2)-3-5-3-~~------------------3~~-5(b2)--3~~---------3-5(b2)--3~~-|-
D|--------------------------5-p-3-5---3-h-5-~----------------3-h-5---------------|-
A|-------------------------------------------------------------------------------|-
E|-------------------------------------------------------------------------------|-

e|-------------------------------------------------------------------------------|-
B|-6(b2)-6---3h6p3---3-6(b2)~~~-6(b2r)-3-6-3h6p3---3------3------3---------------|-
G|-----------------5-----------------------------5---5(b2)--5(b2)--5(b2)--3~~----|-
D|-------------------------------------------------------------------------------|-
A|-------------------------------------------------------------------------------|-
E|-------------------------------------------------------------------------------|-

e|-------------------------------------------------------------------------------|-
B|----------------------------------------------------------6(b2~~r)---3h6p3---3-|-
G|--------------5(b2)~/\/~--p3---------3-5(b2)~r~-5-3-\----------------------5---|-
D|-5p3p(0)-(h5)----------------5-p-3-5-------------------------------------------|-
A|-------------------------------------------------------------------------------|-
E|-------------------------------------------------------------------------------|-

e|----------------------------------------------------------------------------------|-
B|-6(b2r)---3h6p3---3-6(b2~~r)--3-6--3h6p3----3--6(b2r)---6(b2)-3-6~~--3---3---3----|-
G|----------------5-------------------------5------------------------7---7---7---5--|-
D|----------------------------------------------------------------------------------|-
A|----------------------------------------------------------------------------------|-
E|----------------------------------------------------------------------------------|-

e|----------------------------------------------------------------------------------------------|-
B|--------3-----------------------------------------------------------3-(3)h6-6(b2)~~r-6(br)~~r-|-
G|--5(b2)---5(br)-3-5-3~~-------5(b2)-3---5(b2)-3-------5(b2)-3-5p3hx----3----------------------|-
D|------------------------5p3-5--------------------3h5------------------------------------------|-
A|----------------------------------------------------------------------------------------------|-
E|----------------------------------------------------------------------------------------------|-

e|---------(10)---10--------(10)---10--(10)----10-(10)-------10h13p10----10--(10)----10-|-
B|-------11-11----13(b2)-----13(b2)-----13(b2)-----13(b2)-------------13------13(b2)----|-
G|-10h12--------------------------------------------------------------------------------|-
D|--------------------------------------------------------------------------------------|-
A|--------------------------------------------------------------------------------------|-
E|--------------------------------------------------------------------------------------|-
                                               
e|--10----------10----------10----------10-------13|*||||-|-
B|--13(b2---r)--13(b2---r)--13(b2---r)--13(b2*)-(15)*||||-|-
G|--------------------------------------------------------|-
D|--------------------------------------------------------|-
A|--------------------------------------------------------|-
E|--------------------------------------------------------|-
  *keep B string bend held and rapid pick (but very lightly) both notes

e|-10--------10--------10--------10--------------13-----------------------|-
B|-13(b2-r)--13(b2-r)--13(b2-r)--13(b2)-13(b2)--(15)-15(r2)-11-13-11--13--|-
G|------------------------------------------------------------------------|-
D|------------------------------------------------------------------------|-
A|------------------------------------------------------------------------|-
E|------------------------------------------------------------------------|-

e|-10------13------------------------------------------------------|-
B|-13(b2)-(15)15(r2)13p11------------11---13(b2r)13-11-13-11----11-|-
G|--------------------------12p10h12-------------------------12----|-
D|-----------------------------------------------------------------|-
A|-----------------------------------------------------------------|-
E|-----------------------------------------------------------------|-

e|---------------------------------------------------------|-
B|-----------11p10-11(b2r)-------------------11p10--13p11--|-
G|-12p10h12----------------12--12--12p10-12----------------|-
D|---------------------------------------------------------|-
A|---------------------------------------------------------|-
E|---------------------------------------------------------|-

                                           *quarter bend
e|--(10)----------10-----(10)---------18(b*qtr)-18(b2)-18-15----15h18p15----15---|-
B|---15-(b2r)--15(b2-r-)--15(b2r)-x--------------------------18----------18------|-
G|-------------------------------------------------------------------------------|-
D|-------------------------------------------------------------------------------|-
A|-------------------------------------------------------------------------------|-
E|-------------------------------------------------------------------------------|-

e|-18(b2r)-18-15-----15--15-(15)-------15-15-(15)------(15)------|-
B|-----------------18--------18(b2r)-18-------18(b2r)---18(b2r)--|-
G|---------------------------------------------------------------|-
D|---------------------------------------------------------------|-
A|---------------------------------------------------------------|-
E|---------------------------------------------------------------|-

e|-(15)----15-15-15--(15)----15---(15)--15---(15)---15-15h18~(18)\--|-
B|--18(b2)------------18(b2)-------18(b2)-----18(b2)----------18-\--|-
G|------------------------------------------------------------------|-
D|------------------------------------------------------------------|-
A|------------------------------------------------------------------|-
E|------------------------------------------------------------------|-

e|---------------------------------------------------------------------|-
B|----------15h18p15~~--15\13~~---13----13--13-13\11---11\8---8~~-8~~--|-
G|-17(b2)--------------------------------------------------------------|-
D|---------------------------------------------------------------------|-
A|---------------------------------------------------------------------|-
E|---------------------------------------------------------------------|-

e|------------------------------------------------------------------------------------||
B|-8h11p8----8------8h11p8----8-8h11p8----8----8h11p8----0----------------------------||
G|--------10---------------10----------10-------------10p0----------------------------||
D|------------------------------------------------------------------------------------||
A|------------------------------------------------------------------------------------||
E|---------------------------------------------------------3~~-3/8---8h10p8\6~~----3--||
Добавлено: 28.05.2016
Вам также может быть интересно:
Другие материалы по этой песне:
  • Аккорды и текст

Страница создана 28.05.2016
http://primanota.ru/goat/gathering-of-ancient-tribes-chords.htm
Привет, Гость.
Предлагаем пройти революционный курс по гитаре.
Подарок от PrimaNota.Ru, забирай!