PrimaNota.ru - самый крупный в мире бесплатный архив песенных текстов, аккордов, табулатур и нот


Go West - Faithful - текст песни, таба, видео

Регистрация Запомнить меня
Войти через:  Facebook Google Twitter Vk Yandex Mail.ru

Go West - Faithful - текст песни, таба, видео

Печатать
Просмотров: 139
Faithful-Go West

I am open to corrections on this, I am almost 100% on the chords but the rythem is 
still here goes.

E---6--666--X--1--111--X--6--666--X--6--666--X----------------|
B---8--888--X--3--333--X--6--888--X--6--666--X----------------|
G---8--888--X--3--333--X--6--888--X--7--777--X----------------|
D---8--888--X--3--333--X--6--888--X--8--888--X----------------|
A---6--666--X--1--111--X--6--666--X--8--888--X----------------|
E-----------X----------X----------X--6--666--X----------------|

E---6--666--X--1--111--X--3--333--X--6-6-6---------------------|
B---8--888--X--3--333--X--4--444--X--6-6-6---------------------|
G---8--888--X--3--333--X--5--555--X--7-7-7---------------------|
D---8--888--X--3--333--X--5--555--X--8-8-8---------------------|
A---6--666--X--1--111--X--3--333--X--8-8-8---------------------|
E-----------X----------X----------X--6-6-6---------------------|

Chorus

"I will be faithful......."
E---6--666--X--6--666--X---1--111--X--3--333-------------|
B---6--666--X--8--888--X---3--333--X--4--444-------------|
G---7--777--X--8--888--X---3--333--X--5--555-------------|
D---8--888--X--8--888--X---3--333--X--5--555-------------|
A---8--888--X--6--666--X---1--111--X--3--333-------------|
E---6--666--X----------X-----------X---------------------| x3

"I will make you see....."
E---5--555-5-5--X--6--666----1-----1--111----------|
B---7--777-7-7--X--6--666----3-----3--333----------|
G---7--777-7-7--X--7--777----3-----3--333----------|
D---7--777-7-7--X--8--888----3-----3--333----------|
A---5--555-5-5--X--8--888----1-----1--111----------|
E---------------X--6--666--------------------------|

"Faithful.....faithful to my lovers prayer"
E---6--666--X--1--11111---6------------------------------|
B---6--666--X--3--33333---6------------------------------|
G---7--777--X--3--33333---7------------------------------|
D---8--888--X--3--33333---8------------------------------|
A---8--888--X--1--11111---8------------------------------|
E---6--666--X-------------6------------------------------|


P.S

There is a bit at the end of the verse patten I forgot about when Pete sings "Then girl 
want you to know" which goes like this


E---4--444--4--444--X--1--111-1-1------------------------|
B---6--666--6--666--X--3--333-3-3------------------------|
G---6--666--6--666--X--3--333-3-3------------------------|
D---6--666--6--666--X--3--333-3-3------------------------|
A---4--444--6--666--X--1--111-1-1------------------------|
E-------------------X------------------------------------|
Добавлено: 28.04.2012
Другие материалы по этой песне:
  • Аккорды и текст

Страница создана 28.04.2012
http://primanota.ru/go-west/faithful-chords.htm
Привет, Гость.
Предлагаем пройти революционный курс по гитаре.
Подарок от PrimaNota.Ru, забирай!