PrimaNota.ru - самый крупный в мире бесплатный архив песенных текстов, аккордов, табулатур и нот


Go Radio - Stay Gone - аккорды и текст, видео

Регистрация Запомнить меня
Войти через:  Facebook Google Twitter Vk Yandex Mail.ru

Go Radio - Stay Gone - аккорды и текст, видео

Печатать
Просмотров: 110
Авторы: Go Radio

Stay Gone
Go Radio
-------------------------------------------------------------------------------
		              Stay Gone - Go Radio
-------------------------------------------------------------------------------
Tabbed by: Sean Hummer
Email: allstar21369@hotmail.com
Website: www.myspace.com/nomeansnocorey


I really like this song. Jason Lancaster is an incredible musician.


Tuning: Standard


Chords Used-

   E       Ab     C#m    Asus2    E5     E7M     C#m7    Bsus4    Am    C7M  -5
|--0--| |--4--| |--4--| |--0--| |--0--| |--0--| |--0--| |--0--| |--0--| |--x--|
|--0--| |--4--| |--5--| |--0--| |--0--| |--0--| |--0--| |--0--| |--1--| |--x--|
|--1--| |--5--| |--6--| |--2--| |--4--| |--4--| |--6--| |--4--| |--2--| |--4--|
|--2--| |--6--| |--6--| |--2--| |--2--| |--1--| |--6--| |--4--| |--2--| |--4--|
|--2--| |--6--| |--4--| |--0--| |--x--| |--x--| |--4--| |--2--| |--0--| |--3--|
|--0--| |--4--| |--x--| |--x--| |--x--| |--x--| |--x--| |--x--| |--x--| |--x--|



Intro-

     E     Ab        C#m       Asus2


     E5    E7M       C#m7      Bsus4       Asus2     Am

	 
	 
Verse-

              E                   Ab
And just in case, you're not just in time,
            C#m                        Asus2
And I don't ever make it out of here alive.
              E                       Ab
You'll know I tried, for the rest of my life,
           C#m            Asus2
to make it up to you.
             E               Ab
If they're alright, then I'm insane,
                C#m                       Asus2
To ever want to walk through all of this again.

    E5                  E7M      C#m7        Bsus4       Asus2    Am
So what's a couple of bottles of wine between me and the fog?




Chorus-

         C#m7             Asus2             E
You can assume that I am here, and on my own.
         C#m7             Asus2             E               Bsus4
You can assume I figured out the road too short to walk alone,
       Asus2           Bsus4    C7M  -5 C#m7 Bsus4 C#m7 E5
And I can't do it by myself, you know I won't.
                    Asus2        Bsus4
She said, "You're better off in New York, stay gone."

              E5      E7M       C#m7      Bsus4       Asus2

              E5      E7M       C#m7      Bsus4       Asus2     Am
I don't want to stay gone.




Verse-

              E                   Ab
And just in case, you're not just in time,
            C#m                        Asus2
Know I was never really over this or fine.
           E                           Ab
I was content to spend the rest of all my life
                C#m                Asus2
To take a final breath for you.
            E                   Ab
To leave a memory of drinking and desire,
       C#m                             Asus2
A storyboard of pictures to depict the fire.

                 E5            E7M       C#m7            Bsus4    Asus2
Could there have been a better motion to claim, a better heart soaked in shame?




Chorus-

         C#m7             Asus2             E
You can assume that I am here, and on my own.
         C#m7             Asus2             E               Bsus4
You can assume I figured out the road too short to walk alone,
       Asus2           Bsus4    C7M  -5 C#m7 Bsus4 C#m7 E5
And I can't do it by myself, you know I won't.
                    Asus2        Bsus4
She said, "You're better off in Boston, stay gone."

              E5      E7M       C#m7      Bsus4       Asus2

              E5      E7M       C#m7      Bsus4       Asus2     Am
Oh but I don't want to stay gone too long.




Bridge- (He barely hits the notes here and also has people talking loudly
over him)

e|----------------------------------------|
B|----------------------------------------|
G|-------------9~-------------------------|
D|-------------9~-------------------2~----|
A|-------------7~-------------------0~----|
E|----------------------------------------|
  And just in case, you found out in time,

e|-------------------------------------------------|
B|-------------------------------------------------|
G|-------------------------------------------------|
D|----------4~-----------------------------4~------|
A|----------2~-----------------------------3~------|
E|-------------------------------------------------|
  I've been out here all alone and I've been blind.
  
e|----------------------------------------------------------------|
B|----------------------------------------------------------------|
G|----------------------------------------------------------------|
D|-----2~--------------------------2~---------------------4~------|
A|-----2~--------------------------0~---------------------2~------|
E|-----0~---------------------------------------------------------|
  I've thrown together a couple of songs, maybe you'd sing along.




Chorus/Outro-

        C#m7             Asus2             E
You can assume that I am here, and on my own.
         C#m7             Asus2             E               Bsus4
You can assume I figured out the road too short to walk alone,
       Asus2           Bsus4    C7M  -5 C#m7 Bsus4 C#m7 E5
And I can't do it by myself, you know I won't.
         Asus2  		     Bsus4            C7M  -5 C#m7 Bsus4 C#m7 E5
She said, "You're better off, you're better off, stay gone."
           Asus2              Bsus4     C7M  -5 C#m7 Bsus4 C#m7 E5
She said, "Don't come back to Florida, babe, stay gone."
                Asus2            Bsus4
Said, "We don't need you back in Florida, stay gone."

              E5      E7M       C#m7      Bsus4       Asus2

              E5      E7M       C#m7      Bsus4       Asus2     E
Stay gone.





Chorus/Outro-
Guitar 2
You can assume that I am here and on my own...
e|5-5--4~---5-5--4~---5-5--4~---2x-0x-7-7---------|
B|5-5--5~---5-5--5~---5-5--5~---5x-5x-5-5---------|
G|4-4--4~---4-4--4~---4-4--4~---4x-4x-4-4---------|
D|------------------------------------------------|
A|------------------------------------------------|
E|------------------------------------------------|

You can assume I've figured out the road too short to walk alone...
e|5-5--4~---5-5--4~---5-5--4~---2x-0x--2x-2x--0---|
B|5-5--5~---5-5--5~---5-5--5~---5x-5x--5x-5x--5---|
G|4-4--4~---4-4--4~---4-4--4~---4x-4x--4x-4x--2---|
D|------------------------------------------------|
A|------------------------------------------------|
E|------------------------------------------------|

And I can't do it by myself, you know I won't...
e|7-7--7~---7-7--7~---5-5--4~---0x-2x-7-7---------|
B|5-5--5~---5-5--5~---5-5--5~---5x-5x-5-5---------|
G|4-4--4~---4-4--4~---4-4--4~---4x-4x-4-4---------|
D|------------------------------------------------|
A|------------------------------------------------|
E|------------------------------------------------|

She said you're better off, you're better off, stay gone...
e|2-0--7~---7-7--7~---7-7--7~---4x-4x-4x-0x-2x----|
B|5-5--5~---5-5--5~---5-5--5~---5x-5x-5x-5x-5x----|
G|4-4--4~---4-4--4~---4-4--4~---4x-4x-4x-4x-4x----|
D|------------------------------------------------|
A|------------------------------------------------|
E|------------------------------------------------|

She said don't come back...
e|7-7--7~---7-7--7~---7-7--7~---4x-4x-2x-0x-2x----|
B|5-5--5~---5-5--5~---5-5--5~---5x-5x-5x-5x-5x----|
G|4-4--4~---4-4--4~---4-4--4~---4x-4x-4x-4x-4x----|
D|------------------------------------------------|
A|------------------------------------------------|
E|------------------------------------------------|

Said we don't need you back in Florida, stay gone...
e|7-7--7--7--2x-2x------4x-4x-2-0h2-5-2-5-4---5-5--5-5-5-5--5-5-5-5---|
B|5-5--5--5--5x-5x------5x-5x-5-5---5-5-5-5---5-5--5-5-5-5--5-5-5-5---|
G|4-4--4--4--4x-4x------4x-4x-4-4---4-4-4-4---4-4--4^4v4^4--4-4-4-4---|
D|--------------------------------------------------------------------|
A|--------------------------------------------------------------------|
E|--------------------------------------------------------------------|

Stay gone...
e|4x-4x-2-0h2-5-2-5-4---5-5-5-5-5~---|
B|5x-5x-5-5---5-5-5-5---5-5-5-5-5~---|
G|4x-4x-4-4---4-4-4-4---4-4-4-4-4~---|
D|-----------------------------------|
A|-----------------------------------|
E|-----------------------------------|





| PM palm mute
| /  slide up
| \  slide down
| h  hammer-on
| p  pull-off
| ~  let ring
| b  bend
| *  substitute
| x  mute note
| +  harmonic

===============================================================================
Добавлено: 14.07.2012
Другие материалы по этой песне:
  • Аккорды и текст

Страница создана 14.07.2012
http://primanota.ru/go-radio/stay-gone-chords.htm
Привет, Гость.
Предлагаем пройти революционный курс по гитаре.
Подарок от PrimaNota.Ru, забирай!