PrimaNota.ru - самый крупный в мире бесплатный архив песенных текстов, аккордов, табулатур и нот


Go Radio - Dear Lucian Dance Forever - таба, видео

Регистрация Запомнить меня
Войти через:  Facebook Google Twitter Vk Yandex Mail.ru

Go Radio - Dear Lucian Dance Forever - таба, видео

Печатать
Просмотров: 183
Artist: Go Radio
Guitarist: Jason Lancaster
Song: Dear Lucian, Dance Forever
Album: Welcome To Life
Tabbed By: Lewis [lewis_mason21@hotmail.com]
Website: http://www.wearegoradio.com

Surprised no one's attempted any tabs by Jason's new band yet!  This song's really easy to play.

Key:
~: Let Note Ring
.: Palm Mute
\: Slide Out Downwards

[Tuning: Standard - E,A,D,G,B,e]


Intro:
e|--------------------------------|
B|--------------------------------|
G|--------------------------------|
D|-44-444-444-444-444-444-444-444-|
A|-22-222-222-222-222-222-222-222-|
E|--------------------------------|


Verse One:
("Let's take it back" ... "But if he found out")
e|----------------------------------------------------------------------|
B|----------------------------------------------------------------------|
G|----------------------------------------------------------------------|
D|-444-444-4----------------------------44-444-444-444-4----------------|
A|-222-222-2-44-444-4-22-222-2-44-444-4-22-222-222-222-2-22-222-222-222-|
E|-----------22-222-2-00-000-0-22-222-2------------------00-000-000-000-|

e|----------------------------------------------------------------------|
B|----------------------------------------------------------------------|
G|-444-444-4----------------------------44-444-444-444-4----------------|
D|-444-444-4-44-444-4-22-222-2-44-444-4-44-444-444-444-4-22-222-222-222-|
A|-222-222-2-44-444-4-22-222-2-44-444-4-22-222-222-222-2-22-222-222-222-|
E|-----------22-222-2-00-000-0-22-222-2------------------00-000-000-000-|


Pre-Chorus:
("That if Jack drove" ... "Would be over now")
e|----------------------------|
G|----------------------------|
D|-6~---2~---4444444444444444-|
A|-6~---2~---4444444444444444-|
E|-4~---0~---2222222222222222-|
             ................


Chorus:
("Come on, come on" ... "Dance til you can't dance")
e|---------------------------------------------------------------------|
B|---------------------------------------------------------------------|
G|-4444444444444444----------------------------------------------------|
D|-4444444444444444-6666666666666666-2222222222222222-4444444444444444-|
A|-2222222222222222-6666666666666666-2222222222222222-4444444444444444-|
E|------------------4444444444444444-0000000000000000-2222222222222222-|


Verse Two:
("She's staring at his brand new" ... "With the t-tops down")
e|----------------------------------------------------------------------|
B|----------------------------------------------------------------------|
G|-444-444-4----------------------------44-444-444-444-4----------------|
D|-444-444-4-44-444-4-22-222-2-44-444-4-44-444-444-444-4-22-222-222-222-|
A|-222-222-2-44-444-4-22-222-2-44-444-4-22-222-222-222-2-22-222-222-222-|
E|-----------22-222-2-00-000-0-22-222-2------------------00-000-000-000-| [x2]


Pre-Chorus:
("And the wind in her hair" ... "Best of our lives, hands down")
e|----------------------------|
G|----------------------------|
D|-6~---2~---4444444444444444-|
A|-6~---2~---4444444444444444-|
E|-4~---0~---2222222222222222-|
             ................

Chorus:
("Come on, come on" ... "Dance til you can't dance")
e|---------------------------------------------------------------------|
B|---------------------------------------------------------------------|
G|-4444444444444444----------------------------------------------------|
D|-4444444444444444-6666666666666666-2222222222222222-4444444444444444-|
A|-2222222222222222-6666666666666666-2222222222222222-4444444444444444-|
E|------------------4444444444444444-0000000000000000-2222222222222222-| [x2]


Solo Rhythm: [Note: Haven't got the lead itself yet]
e|---------------------------------------------------------------------|
B|---------------------------------------------------------------------|
G|-4444444444444444----------------------------------------------------|
D|-4444444444444444-6666666666666666-2222222222222222-4444444444444444-|
A|-2222222222222222-6666666666666666-2222222222222222-4444444444444444-|
E|------------------4444444444444444-0000000000000000-2222222222222222-|

e|---------------------------------------------------------------------|
B|---------------------------------------------------------------------|
G|-4444444444444444----------------------------------------------------|
D|-4444444444444444-2222222222222222-4444444444444444-6666666666666666-|
A|-2222222222222222-2222222222222222-4444444444444444-6666666666666666-|
E|------------------0000000000000000-2222222222222222-4444444444444444-|

e|----------------------------|
G|----------------------------|
D|-6~---2~---4444444444444444-|
A|-6~---2~---4444444444444444-|
E|-4~---0~---2222222222222222-|
             ................


Break: [Note: Play on acoustic or clean setting, if you wish]
("Come on, come on" ... "I'm telling everybody")
e|--------------------------|
B|-00-000-000-000-000-000-0-|
G|-44-444-444-444-444-444-4-|
D|-44-444-444-444-444-444-4-|
A|-22-222-222-222-222-222-2-|
E|--------------------------|

Chorus:
("Come on, get up" ... "Come on, come on")
e|----------------------------------------------------|
B|----------------------------------------------------|
G|----------------------------------------------------|
D|-6666666666666666-2222222222222222-4444444444444444-|
A|-6666666666666666-2222222222222222-4444444444444444-|
E|-4444444444444444-0000000000000000-2222222222222222-|

e|---------------------------------------------------------------------|
B|---------------------------------------------------------------------|
G|-4444444444444444----------------------------------------------------|
D|-4444444444444444-6666666666666666-2222222222222222-4444444444444444-|
A|-2222222222222222-6666666666666666-2222222222222222-4444444444444444-|
E|------------------4444444444444444-0000000000000000-2222222222222222-| [x3]

Outro:
("Come on, come on" ... "Dance til we can't dance")
e|--------------------------|
B|--------------------------|
G|-4~-----------------------|
D|-4~---6~---2~---4~--------|
A|-2~---6~---2~---4~-44444\-|
E|------4~---0~---2~-22222\-|
                     .....
Добавлено: 24.06.2012
Другие материалы по этой песне:
  • Аккорды и текст

Страница создана 22.05.2012
http://primanota.ru/go-radio/dear-lucian-dance-forever-chords.htm
Привет, Гость.
Предлагаем пройти революционный курс по гитаре.
Подарок от PrimaNota.Ru, забирай!