PrimaNota.ru - самый крупный в мире бесплатный архив песенных текстов, аккордов, табулатур и нот


Go Betty Go - You Want It All - текст песни, таба, видео

Регистрация Запомнить меня
Войти через:  Facebook Google Twitter Vk Yandex Mail.ru

Go Betty Go - You Want It All - текст песни, таба, видео

Печатать
Просмотров: 114
-------------------------------------------------------------------------------
                            You Want It All - Go Betty Go
-------------------------------------------------------------------------------
Tabbed by:crystal_bp
Email:Lcordon@aol.com

Tuning:standard

e|---------------------------------------------------------------------------|
B|---------------------------------------------------------------------------|
G|---------------------------------------------------------------------------|
D|---------------------------------------------------------------------------|
A| -0-0-3-0-----5-3-0-0-3-0-----0-0-3-0-0-3-0-0-3-0-0-3---7-7-7-7-7----------|
E|----------3-3-------------3-3---------------------------5-5-5-5-5----------|

e|---------------------------------------------------------------------------|
B|---------------------------------------------------------------------------|
G|---------------------------------------------------------------------------|
D|-------------5-5-5--7--9-9-9-9-9-----------------------5-5-5--7--9-9-9-9-9-|
A|-5-5-5-5-5---3-3-3--5--7-7-7-7-7-7-7-7-7-7--5-5-5-5-5--3-3-3--5--7-7-7-7-7-|
E|-3-3-3-3-3-----------------------5-5-5-5-5--3-3-3-3-3----------------------|
            verse:
e|---------------------------------------------------------------------------|
B|---------------------------------------------------------------------------|
G|---------------------------------------------------------------------------|
D|----------------5--9---99-77-66-77-----------5---9-------------------------|
A|-7--7\5--5-5-5--3--7-----------------7---5---3---7-------------------------|
E|-5--5\3--3-3-3-----------------------5---3---------------------------------|
            chorus:
e|---------------------------------------------------------------------------|
B|---------------------------------------------------------------------------|
G|---------------------------------------------------------------------------|
D|--------------555--7--99999---------------555--7--99999--------------------|
A|33333--55555--333--5--77777--33333-55555--333--5--77777--------------------|
E|55555--33333-----------------55555-33333-----------------------------------|

e|---------------------------------------------------------------------------|
B|---------------------------------------------------------------------------|
G|---------------------------------------------------------------------------|
D|---------------------------------------------------------------------------|
A|-0-0-3-0-----5-3-0-0-3-0-----5-3-0-0-3-0-----5-3-0-0-3-0-----5-3-----------|
E|---------3-3-------------3-3-------------3-3-------------3-3---------------|
           repeat verse, then chorus 2X, then:        
e|---------------------------------------------------------------------------|
B|----------------------13-12-10-10h12-10-10--13-12-10-10h12-10-10-----------|
G|---------------------------------------------------------------------------|
D|----------5---9------------------------------------------------------------|
A|--3---5---3---7------------------------------------------------------------|
E|--5---3--------------------------------------------------------------------|
            solo:2X
e|---------------------------------------------------------------------------|
B|---13-12-10-10h12-10-10--13-12-10-10h12-10-10--13-12-10-10h12-10-10--------|
G|---------------------------------------------------------------------------|
D|---------------------------------------------------------------------------|
A|---------------------------------------------------------------------------|
E|---------------------------------------------------------------------------|

e|---------------------------------------------------------------------------|
B|---13-13-13-15-15-15-15-17-17-17-18-17-------------------------------------|
G|---------------------------------------------------------------------------|
D|---------------------------------------------------------------------------|
A|---------------------------------------------------------------------------|
E|---------------------------------------------------------------------------|
            chorus 4X, finish with:
e|---------------------------------------------------------------------------|
B|---------------------------------------------------------------------------|
G|---------------------------------------------------------------------------|
D|---------------------------------------------------------------------------|
A|-0-0-3-0-----5-3-0-0-3-0-----5-3-0-0-3-0-----5-3-0-0-3-0-----5-3-----------|
E|---------3-3-------------3-3-------------3-3-------------3-3---------------|

e|---------------------------------------------------------------------------|
B|---------------------------------------------------------------------------|
G|---------------------------------------------------------------------------|
D|---------------------------------------------------------------------------|
A|-0-0-3-0-----5-3-0-0-3-0-----5-3-0-0-3-0-----5-3-0-0-3-0-----5-3---3-------|
E|---------3-3-------------3-3-------------3-3-------------3-3-------5-------|
| /  slide up
| \  slide down
| h  hammer-on
| p  pull-off
| ~  vibrato
| +  harmonic
| x  Mute note
===============================================================================
Добавлено: 10.04.2012
Другие материалы по этой песне:
  • Аккорды и текст

Страница создана 10.04.2012
http://primanota.ru/go-betty-go/you-want-it-all-chords.htm
Привет, Гость.
Предлагаем пройти революционный курс по гитаре.
Подарок от PrimaNota.Ru, забирай!