PrimaNota.ru - самый крупный в мире бесплатный архив песенных текстов, аккордов, табулатур и нот


Go Betty Go - Saturday - текст песни, таба, бас-таба, видео

Регистрация Запомнить меня
Войти через:  Facebook Google Twitter Vk Yandex Mail.ru

Go Betty Go - Saturday - текст песни, таба, бас-таба, видео

Печатать
Просмотров: 134
-------------------------------------------------------------------------------
                             SATURDAY - Go Betty Go
-------------------------------------------------------------------------------
Tabbed by: Spencer
Email: Spencer@Spencerblack.org
More: www.spencerblack.org
Band Website: http://www.gobettygo.com/

Tuning: standard


INTRO:
e|---------------------------------------------------------------------------|
B|---------------------------------------------------------------------------|
G|---------------------------------------------------------------------------|
D|-2---5---7-----------------------------------------------------------------|4x
A|-2---5---7-----------------------------------------------------------------|
E|-0---3---5-----------------------------------------------------------------|


listen to the song for the idea of how long to play this note:
e|-12-12-12-12---------------------------------------------------------------|
B|---------------------------------------------------------------------------|
G|---------------------------------------------------------------------------|
D|---------------------------------------------------------------------------|
A|---------------------------------------------------------------------------|
E|---------------------------------------------------------------------------|


     xxxx    xxxx    xxxx
e|---------------------------------------------------------------------------|
B|---------------------------------------------------------------------------|
G|---------------------------------------------------------------------------|
D|-2-2222--5-5555--7-7777----------------------------------------------------|4x
A|-2-2222--5-5555--7-7777----------------------------------------------------|
E|-0-0000--3-3333--5-5555----------------------------------------------------|

    
e|---------------------------------------------------------------------------|
B|---------------------------------------------------------------------------|
G|---------------------------------------------------------------------------|
D|-x-2-x-2--x-7-x-7--x-5-x-5--x-7-x-7----------------------------------------|2x
A|-x-2-x-2--x-7-x-7--x-5-x-5--x-7-x-7----------------------------------------|
E|-x-0-x-0--x-5-x-5--x-3-x-3--x-5-x-5----------------------------------------|


e|---------------------------------------------------------------------------|
B|---------------------------------------------------------------------------|
G|---------------------------------------------------------------------------|
D|-22222222-77777777-55555555-77777777---------------------------------------|
A|-22222222-77777777-55555555-77777777---------------------------------------|
E|-00000000-55555555-33333333-55555555---------------------------------------|

e|---------------------------------------------------------------------------|
B|---------------------------------------------------------------------------|
G|---------------------------------------------------------------------------|
D|-22222222-77777777-55555555-10-10-99-77-55-2-------------------------------|
A|-22222222-77777777-55555555-10-10-99-77-55-2-------------------------------|
E|-00000000-55555555-33333333-8--8--77-55-33-0-------------------------------|

e|---------------------------------------------------------------------------|
B|---------------------------------------------------------------------------|
G|---------------------------------------------------------------------------|
D|-2---5---7-----------------------------------------------------------------|
A|-2---5---7-----------------------------------------------------------------|
E|-0---3---5-----------------------------------------------------------------|

listen to the song for the idea of how long to play this note:
e|12-12-12-12----------------------------------------------------------------|
B|---------------------------------------------------------------------------|
G|---------------------------------------------------------------------------|
D|---------------------------------------------------------------------------|
A|---------------------------------------------------------------------------|
E|---------------------------------------------------------------------------|

     xxxx    xxxx    xxxx
e|---------------------------------------------------------------------------|
B|---------------------------------------------------------------------------|
G|---------------------------------------------------------------------------|
D|-2-2222--5-5555--7-7777----------------------------------------------------|2x
A|-2-2222--5-5555--7-7777----------------------------------------------------|
E|-0-0000--3-3333--5-5555----------------------------------------------------|


e|---------------------------------------------------------------------------|
B|---------------------------------------------------------------------------|
G|---------------------------------------------------------------------------|
D|-x-2-x-2--x-7-x-7--x-5-x-5--x-7-x-7----------------------------------------|2x
A|-x-2-x-2--x-7-x-7--x-5-x-5--x-7-x-7----------------------------------------|
E|-x-0-x-0--x-5-x-5--x-3-x-3--x-5-x-5----------------------------------------|


e|---------------------------------------------------------------------------|
B|---------------------------------------------------------------------------|
G|---------------------------------------------------------------------------|
D|-22222222-77777777-55555555-77777777---------------------------------------|
A|-22222222-77777777-55555555-77777777---------------------------------------|
E|-00000000-55555555-33333333-55555555---------------------------------------|

e|---------------------------------------------------------------------------|
B|---------------------------------------------------------------------------|
G|---------------------------------------------------------------------------|
D|-22222222-77777777-55555555-10-10-99-77-55-2~------------------------------|
A|-22222222-77777777-55555555-10-10-99-77-55-2~------------------------------|
E|-00000000-55555555-33333333-8--8--77-55-33-0~------------------------------|

SOLO:
e|-121415-14--15-14-15-14-15-14-15-14--121415-14--15-14-15-14-15-14-15-14----|
B|---------------------------------------------------------------------------|
G|---------------------------------------------------------------------------|
D|---------------------------------------------------------------------------|
A|---------------------------------------------------------------------------|
E|---------------------------------------------------------------------------|

(as fast as you can) repeat for a while...
e|-12-14-15------------------------------------------------------------------|

OUTO INTRO:
e|-15--14--12~---------------------------------------------------------------|


e|---------------------------------------------------------------------------|
B|---------------------------------------------------------------------------|
G|---------------------------------------------------------------------------|
D|-22222222-77777777-55555555-77777777---------------------------------------|
A|-22222222-77777777-55555555-77777777---------------------------------------|
E|-00000000-55555555-33333333-55555555---------------------------------------|

e|---------------------------------------------------------------------------|
B|---------------------------------------------------------------------------|
G|---------------------------------------------------------------------------|
D|-22222222-77777777-5-10-10-99-77-55-2--------------------------------------|
A|-22222222-77777777-5-10-10-99-77-55-2--------------------------------------|
E|-00000000-55555555-3-8--8--77-55-33-0--------------------------------------|

e|---------------------------------------------------------------------------|
B|---------------------------------------------------------------------------|
G|---------------------------------------------------------------------------|
D|-x-2-x-2--x-7-x-7--x-5-x-5--x-7-x-7----------------------------------------|4x
A|-x-2-x-2--x-7-x-7--x-5-x-5--x-7-x-7----------------------------------------|
E|-x-0-x-0--x-5-x-5--x-3-x-3--x-5-x-5----------------------------------------|


OUTRO:
e|---------------------------------------------------------------------------|
B|---------------------------------------------------------------------------|
G|---------------------------------------------------------------------------|3x
D|-22222222-77777777-55555555-77777777---------------------------------------|
A|-22222222-77777777-55555555-77777777---------------------------------------|
E|-00000000-55555555-33333333-55555555---------------------------------------|

(continued outro)
e|---------------------------------------------------------------------------|
B|---------------------------------------------------------------------------|
G|---------------------------------------------------------------------------|
D|-22222222-77777777-55555555-10-10-99-77-55-2-------------------------------|
A|-22222222-77777777-55555555-10-10-99-77-55-2-------------------------------|
E|-00000000-55555555-33333333-8--8--77-55-33-0-------------------------------|


second guitar during OUTRO:
e|-7777-----------5555-------------------------------------------------------|
B|------5555-8888------------------------------------------------------------|
G|---------------------------------------------------------------------------|
D|---------------------------------------------------------------------------|
A|---------------------------------------------------------------------------|
E|---------------------------------------------------------------------------|




| /  slide up
| \  slide down
| h  hammer-on
| p  pull-off
| ~  vibrato
| +  harmonic
| x  Mute note
===============================================================================
Добавлено: 02.07.2012
Вам также может быть интересно:
Другие материалы по этой песне:
  • Аккорды и текст

Страница создана 27.04.2012
http://primanota.ru/go-betty-go/saturday-chords.htm
Привет, Гость.
Предлагаем пройти революционный курс по гитаре.
Подарок от PrimaNota.Ru, забирай!