PrimaNota.ru - самый крупный в мире бесплатный архив песенных текстов, аккордов, табулатур и нот


Go Betty Go - Laugh Again - текст песни, таба, видео

Регистрация Запомнить меня
Войти через:  Facebook Google Twitter Vk Yandex Mail.ru

Go Betty Go - Laugh Again - текст песни, таба, видео

Печатать
Просмотров: 141
This is an awesome song. Go Betty Go have good and fun songs to play.

Verse 1:
gtr.1/with distortion
E|--------------------------------------------------------------------------|
B|--------------------------------------------------------------------------|
G|-----------------------------------9-9999999999---------------------------|
D|------------11-111111111111111111119-99999999997-7777777779-999999--------|
A|------------11-111111111111111111117-77777777777-7777777779-99999999776677|
E|------------9--9-9-9-9-9-9-9-9-9-9-------------5-5555555557-777777--------|

E|---------------------------------------------------------------|
B|---------------------------------------------------------------|
G|-----------------------9-9999999999----------------------------|
D|11-111111111111111111119-99999999997-77777777779-999999--------|
A|11-111111111111111111117-77777777777-77777777779-99999966779977|
E|9--9-9-9-9-9-9-9-9-9-9-------------5-55555555557-777777--------|

Pre-Chorus 1:
gtr. 1
/E|------------------------------------------------------------------|
|B|------------------------------------------------------------------|
|G|------------------------------------------------------------------|
|D|7-777777777779-999999999997-777777777779-9999999999999999999999999|
|A|7-777777777779-999999999997-777777777779-9999999999999999999999999|
|E|5-555555555557-777777777775-555555555557-7777777777777777777777777|
|  gtr 2. with distortion
|E|------------------------------------------------------------------|
|B|------------------------------------------------------------------|
|G|------------------------------------------------------------------|
|D|------------------------------------------------------------------|
|A|----------------------------------------------------6---7---9---12|
\E|------------------------------------------------------------------|

Chorus 1:
gtr. 1
/E|-------------------------------------------------------------|
|B|-------------------------------------------------------------|
|G|*-----------------------9-9999999999------------------------*|
|D|-11-111111111111111111119-99999999999-99999999997-7777779999-|
|A|*11-111111111111111111117-77777777779-99999999997-7777779999*|
|E|-9--9-9-9-9-9-9-9-9-9-9-------------7-77777777775-5555557777-|
|  gtr. 2
|E|-------------------------------------------------------------|
|B|-------------------------------------------------------------|
|G|*-----------------------------------------------------------*|
|D|-------------------------------------------------------------|
|A|*11-11-1111-11-11/7-7-77-7-7-6-6-66-6-6-12/11-11/9-9\12-12~-*|
\E|-------------------------------------------------------------|

Post-Chorus:
gtr. 1:
E|----------------------------------------------------------------------|
B|----------------------------------------------------------------------|
G|----------------------------------------------------------------------|
D|----------------------------------------------------------------------|
A|--11--11-11--6--6-6--9--7--6--7-777--11--11-11--6--6-6--9--7--6--7-777|
E|99--99--9--77-77-7-77-55-44-55-5---99--99--9--77-77-7-77-55-44-55--555|
  ..  ..  .  .. .. . .. .. .. .. .   ..  ..  .  .. .. . .. .. .. ..  p.m.

Verse 2:
gtr. 1:
E|---------------------------------------------------------------|
B|---------------------------------------------------------------|
G|-----------------------9-9999999999----------------------------|
D|11-111111111111111111119-99999999997-7777777779-9999999--------|
A|11-111111111111111111117-77777777777-7777777779-999999999776677|
E|9--9-9-9-9-9-9-9-9-9-9-------------5-5555555557-7777777--------|

E|--------------------------------------------------------------|
B|---------------------------------------------------------------|
G|-----------------------9-9999999999----------------------------|
D|11-111111111111111111119-99999999997-77777777779-999999--------|
A|11-111111111111111111117-77777777777-77777777779-99999966779977|
E|9--9-9-9-9-9-9-9-9-9-9-------------5-55555555557-777777--------|

Pre-Chorus 2:
 gtr. 1:
/E|------------------------------------------------------------------|
|B|------------------------------------------------------------------|
|G|------------------------------------------------------------------|
|D|7-777777777779-999999999997-777777777779-9999999999999999999999999|
|A|7-777777777779-999999999997-777777777779-9999999999999999999999999|
|E|5-555555555557-777777777775-555555555557-7777777777777777777777777|
|  gtr 2.
|E|------------------------------------------------------------------|
|B|------------------------------------------------------------------|
|G|------------------------------------------------------------------|
|D|------------------------------------------------------------------|
|A|----------------------------------------------------6---7---9---12|
\E|------------------------------------------------------------------|

Chorus 2:
gtr. 1
/E|-------------------------------------------------------------|
|B|-------------------------------------------------------------|
|G|*-----------------------9-9999999999------------------------*|
|D|-11-111111111111111111119-99999999999-99999999997-7777779999-|
|A|*11-111111111111111111117-77777777779-99999999997-7777779999*|
|E|-9--9-9-9-9-9-9-9-9-9-9-------------7-77777777775-5555557777-|
|  gtr. 2
|E|-------------------------------------------------------------|
|B|-------------------------------------------------------------|
|G|*-----------------------------------------------------------*|
|D|-------------------------------------------------------------|
|A|*11-11-1111-11-11/7-7-77-7-7-6-6-66-6-6-12/11-11/9-9\12-12~-*|
\E|-------------------------------------------------------------|

Bridge:
E|---------------------------------------------------|
B|---------------------------------------------------|
G|---------------------------------------------------|
D|11---119---97---------------11---119---97----------|
A|11---119---97---99-77-66-77x11---119---97---------9|
E|9----9-7---75--------------x9----9-7---75---771011-|
       ^     ^               ^     ^     ^  upstroke

E|----------------------------------------|
B|----------------------------------------|
G|----------------------------------------|
D|11111111111111119999999977777777--------|
A|1111111111111111999999997777777799776677|
E|9-9-9-9-9-9-9-9-7777777755555555--------|
  . .   . .   .   .. .. . .. .. . p.m.

E|-----------------------------------------------------------------------------|
B|-----------------------------------------------------------------------------|
G|-----------------------------------------------------------------------------|
D|11111111111111119999999977777777777777777777777777799999999999999999999999999|
A|11111111111111119999999977777777777777777777777777799999999999999999999999999|
E|9-9-9-9-9-9-9-9-7777777755555555555555555555555555577777777777777777777777777|
  . .   . .   .   .. .. . p.m. 

Breakdown: 
gtr. 1:
E|--------------------------------------------------------------------------|
B|--------------------------------------------------------------------------|
G|*------------------------------------------------------------------------*|
D|--------------------------------------------------------------------------|
A|*--11--11-11--6--6-6--9--7--6--7-777--11--11-11--6--6-6--9--7--6--7-7-777*|
E|-99--99--9--77-77-7-77-55-44-55-5---99--99--9--77-77-7-77-55-44-55-5-5----|
  ..  ..  .  .. .. . .. .. .. .. .   ..  ..  .  .. .. . .. .. .. .. . p.m.

E|----------------------------------------------------------------------|
B|----------------------------------------------------------------------|
G|----------------------------------------------------------------------|
D|----------------------------------------------------------------------|
A|--11--11-11--6--6-6--9--7--6--7-777--11--11-11--6--6-6--9--7--6--7-777|
E|99--99--9--77-77-7-77-55-44-55-5---99--99--9--77-77-7-77-55-44-55--555|
  ..  ..  .  .. .. . .. .. .. .. .   ..  ..  .  .. .. . .. .. .. ..  p.m.

Outro Chorus:
gtr. 1:
E|-------------------------------------------------------------|
B|-------------------------------------------------------------|
G|*-----------------------9-9999999999------------------------*|
D|-11-111111111111111111119-99999999999-99999999997-7777779999-|
A|*11-111111111111111111117-77777777779-99999999997-7777779999*|
E|-9--9-9-9-9-9-9-9-9-9-9-------------7-77777777775-5555557777-|

gtr. 1
/E|-----------------------------------------------------------------|
|B|-----------------------------------------------------------------|
|G|*-----------------------9-9999999999----------------------------*|
|D|-11-111111111111111111119-99999999999-99999999997-777777779-999--|
|A|*11-111111111111111111117-77777777779-99999999997-777777779-999-*|
|E|-9--9-9-9-9-9-9-9-9-9-9-------------7-77777777775-555555557-777--|
|  gtr. 2
|E|-----------------------------------------------------------------|
|B|-----------------------------------------------------------------|
|G|*---------------------------------------------------------------*|
|D|-----------------------------------------------------------------|
|A|*11-11-1111/9-9\11-11/7-77-7-77-7-77-6-66-6-\9/7\12/1111/99/1212*|
\E|-----------------------------------------------------------------|x4

gtr. 1 & 2
E|--------|
B|--------|
G|--------|
D|11~-----|
A|11~-----|
E|9~------|

END
Добавлено: 03.07.2012
Другие материалы по этой песне:
  • Аккорды и текст

Страница создана 01.04.2012
http://primanota.ru/go-betty-go/laugh-again-chords.htm
Привет, Гость.
Предлагаем пройти революционный курс по гитаре.
Подарок от PrimaNota.Ru, забирай!