PrimaNota.ru - самый крупный в мире бесплатный архив песенных текстов, аккордов, табулатур и нот


Go Betty Go - Go Away - текст песни, таба, видео

Регистрация Запомнить меня
Войти через:  Facebook Google Twitter Vk Yandex Mail.ru

Go Betty Go - Go Away - текст песни, таба, видео

Печатать
Просмотров: 131
Alright well since there is no tab for this i have decided to put one up.

gtr.1/with distortion
e|--------------------------------------------------------------------------|
B|--------------------------------------------------------------------------|
G|---7-7-7-7-7-----10-10-10-10-10-------------------------------------------|
D|---7-7-7-7-7-----10-10-10-10-10-----5-5-5-5-5-----8-8-8-8-8---------------|
A|---5-5-5-5-5------8--8--8--8--8-----5-5-5-5-5-----8-8-8-8-8---------------|
E|------------------------------------3-3-3-3-3-----6-6-6-6-6---------------|

gtr.1/with whammy distortion???(all i know is that some sort of distortion is used)
e|--------------------------------------------------------------------------|
B|--------------------------------------------------------------------------|
G|---7-7-7-7-7-----10-10-10-10-10-------------------------------------------|
D|---7-7-7-7-7-----10-10-10-10-10-----5-5-5-5-5-----8-8-8-8-8---------------|
A|---5-5-5-5-5------8--8--8--8--8-----5-5-5-5-5-----8-8-8-8-8---------------|
E|------------------------------------3-3-3-3-3-----6-6-6-6-6---------------|
                         OR YOU CAN PLAY THIS 2x:
e|--------------------------------------------------------------------------|
B|--------------------------------------------------------------------------|
G|---7-7-7-7-7--------------------------------------------------------------|
D|---7-7-7-7-7-----10-10-10-10-10---9-9-9-9-9---8-8-8-8-8---10-10-10-10-10--|
A|---5-5-5-5-5-----10-10-10-10-10---9-9-9-9-9---8-8-8-8-8---10-10-10-10-10--|
E|------------------8--8--8--8--8---7-7-7-7-7---6-6-6-6-6----8--8--8--8--8--|


e|--------------------------------------------------------------|
B|--------------------------------------------------------------|play this
G|---7-7-7-7-7--------------------------------------------------| 5x
D|---7-7-7-7-7------------3-3-3-3-----5-5-5-5-5-----------------|
A|---5-5-5-5-5--3h5p3h5---3-3-3-3-----5-5-5-5-5-----------------|
E|------------------------1-1-1-1-----3-3-3-3-3-----------------|

e|--------------------------------------------------------------------------|
B|--------------------------------------------------------------------------|
G|--------------------------------------------------------------------------|
D|-7--7/10-10/12-12/14-14-14-14/7-7-7-7--10-10-10-10--12-12-12-12--8-8-8-8-8|
A|-7--7/10-10/12-12/14-14-14-14/7-7-7-7--10-10-10-10--12-12-12-12--8-8-8-8-8|
E|-5--5/-8--8/10-10/12-12-12-12/5-5-5-5---8--8--8--8--10-10-10-10--6-6-6-6-6|

e|--------------------------------------------------------------------------|
B|--------------------------------------------------------------------------|
G|---7-7-7-7-7--------------------------------------------------------------|
D|---7-7-7-7-7----let ring out----------------------------------------------|
A|---5-5-5-5-5--------------------------------------------------------------|
E|--------------------------------------------------------------------------|

e|--------------------------------------------------------------------------|
B|--------------------------------------------------------------------------|
G|---7-7-7-7-7--------------------------------------------------------------|
D|---7-7-7-7-7-----10-10-10-10-10---9-9-9-9-9---8-8-8-8-8---10-10-10-10-10--|
A|---5-5-5-5-5-----10-10-10-10-10---9-9-9-9-9---8-8-8-8-8---10-10-10-10-10--|
E|------------------8--8--8--8--8---7-7-7-7-7---6-6-6-6-6----8--8--8--8--8--|

e|--------------------------------------------------------------------------|
B|--------------------------------------------------------------------------|
G|---7-7-7-7-7--------------------------------------------------------------|
D|---7-7-7-7-7-----10-10-10-10-10---9-9-9-9-9-------------------------------|
A|---5-5-5-5-5-----10-10-10-10-10---9-9-9-9-9-------------------------------|
E|------------------8--8--8--8--8---7-7-7-7-7-------------------------------|



e|--------------------------------------------------------------|
B|--------------------------------------------------------------|play this
G|---7-7-7-7-7--------------------------------------------------| 4x
D|---7-7-7-7-7------------3-3-3-3-----5-5-5-5-5-----------------|
A|---5-5-5-5-5--3h5p3h5---3-3-3-3-----5-5-5-5-5-----------------|
E|------------------------1-1-1-1-----3-3-3-3-3-----------------|

Добавлено: 20.04.2012
Другие материалы по этой песне:
  • Аккорды и текст

Страница создана 16.03.2012
http://primanota.ru/go-betty-go/go-away-chords.htm
Привет, Гость.
Предлагаем пройти революционный курс по гитаре.
Подарок от PrimaNota.Ru, забирай!